Cifra Club

Aprenda

Hollow Solo

Pantera

Cifra: Principal (violão e guitarra)
Já pensou em usar uma coleção de roupas do Cifra Club? Responda as perguntas abaixo e nos ajude nessa missão! →
tom: C
Album: Vulgar Display Of Power
b= half bend/B=full bend

g-|tr 1 distorted (Eb-Ab-Db-Gb-Bb-Eb)-Dimebag1
g-|tr 2 clean, acoustic (Eb-Ab-Db-Gb-Bb-Eb)-Dimebag2
g-|tr 3 distorted w/delay (Eb-Ab-Db-Gb-Bb-Eb)

gtr 1 fig1
                         ~~~~~~~~
|----------------------------------------|
|---8B==rp5--8----------8B==rp5--5-------|
|--x--------------------x--------8-------|
|-x--------------------x-----------------|
|----------------------------------------|
|----------------------------------------|

gtr 2
                                                                                         
                     x2(1 each for figs 1, and 2)
|------------------------------------------------------------|
|-------0--------------0---------------0-------------0-------|
|-----5---5----------5---5----------5-----5--------5--5------|
|---2-------2------2-------2------2---------2----2------2----|
|-0--------------3-----------------------------0-------------|
|-------------------------------3----------------------------|

gtr 1 fig2(part 1)
      3          3          3          3           3              4
  |-----||-----| |----| |------||-----|    |---------|
|-----------[5]--------------------------------------|
|--------------8p5---5-------------------------------|
|-8p7p5-7h8-------8----8p7p5----5--7h8p7p5-----------|
|------------------------------7---------------------|
|----------------------------------------------------|
|----------------------------------------------------|

gtr 1 fig2 (part 2)
            ~~                                               3
     3           3               3                  |-----------|
  |----|   |-----|   |------------------------------------------|
|---------------------------------------------------------------|
|---------------------------------------------------------------|
|---5-----------------------------------------------------------|
|-7---7--(7)-5--------------------------------------------------|
|-------------7--5b==(5)=(5)=r----------------------------------|
|------------------------------8B==(8)=r------------------------|

gtr 1 fig 3
     hold bend----------|          ~~~~~~~~~~~~~               ~~~~~~      ~~~~~~~~~~~~~~~~~~--|
|--15B-15-15--15-15-------15B=(15)*=(15)--------------|
|--15B-15-----15-15-15b---15B=(15)r---x---15B=(15)r--15B=(15)r--x------------------------------|
|------------------------------------x-------------------------x-------------------------------|
|----------------------------------------------------------------------------------------------|
|----------------------------------------------------------------------------------------------|
|----------------------------------------------------------------------------------------------|

gtr 2 fig 3 pt1

|----------------------------------------------------------------|
|-------0-----------------0-------------------0------------------|
|-----5---5------------5-----5--------------------5--------------|
|---2--------2------2-----------2---------0----------0-----------|
|-0------------------------------------3-------------------------|
|----------------3------------------2----------------------------|

gtr 2 fig 3 pt 2
    ~~
|--0--|
|--0--|
|--2--|
|--3--|
|--3--|
|--1--|


gtr3 fig 4

                                                                                         
                         wammy bar dip
|-16B============(16)==============(16)==========(16)\------------------------------|
|-15B============(15)=============r----------------------\--------------------------|
|-----------------------------------------------------------------\-------/-\-------|
|------------------------------------------------------------------\-----/---\------|
|-------------------------------------------------------------------\---/-----\-----|
|--------------------------------------------------------------------\-/-------\----|
                                     (gtr 2 plays fig 1 x2)
Compositor não encontrado.
3.025 exibições
    • ½ Tom
    • A
    • Bb
    • B
    • C
    • Db
    • D
    • Eb
    • E
    • F
    • F#
    • G
    • Ab
  • Adicionar à lista

    0 comentários

    Ver todos os comentários

    Conseguiu tocar?

    0 Tocaram 0 Ainda não

    Grave um vídeo tocando Hollow Solo e nos envie!

    00:00 / 00:00
    Outros vídeos desta música
    Repetir Qualidade Automático
    Outros vídeos desta música
    00:00 / 00:00
    Automático

    Cifra Club Pro

    Aproveite o Cifra Club com benefícios exclusivos e sem anúncios
    Cifra Club Pro
    Aproveite o Cifra Club com benefícios exclusivos e sem anúncios
    OK