Cifra Club

Aprenda

Live In A Hole

Pantera

Cifra: Principal (violão e guitarra)
Quer fazer aulas de música com a gente? Responda essas perguntas
e nos ajude nesse projeto! →
tom: A
Intro:
E|--------------------|
B|--------------------|
G|--------------------|
D|--------------------| 4x
A|--2--2--2--2--2--2--|
E|--0--0--0--0--0--0--|  

Fill 1:
E|-------------------|
B|-------------------|
G|-------------------|
D|-2-----2-2-----2-2-|
A|-1-2-2-1-1-2-2-1-1-|
E|---0-0-----0-0-----|

Riff A:
E|-------------------------------------| 
B|-18-17-16----------------------------|
G|----------15-14-13----------15-14-13-|
D|-------------------15-14-13----------|
A|-------------------------------------|
E|-------------------------------------|

  Guitarra Base (Drop D)
E|-------------------------------------|
B|-------------------------------------|
G|-------------------------------------|
D|-10-9--8-----------------------------|
A|-8--7--6--8--7--6--3--2--1--8--7--6--|
E|----------8--7--6--3--2--1--8--7--6--|

Última vez:

Fill 2
E|---------------------------------------------------------------|
B|---------------------------------------------------------------|
G|-10-9-8-------------------------10-9-8-------------------------|
D|---------8-7-6---------8-7-6------------8-7-6------10-11-12--0-|
A|----------------8-7-6------------------------------------------|
E|---------------------------------------------------------------|
                                                               Ring

Riff B
E|--------------|---------|
B|--------------|---------|
G|-----/ph.----|----------|
D|-8---5--------|-8---12--| 
A|-7-----6-7----|-7---11--|
E|------------0-|---------|  
      3x             2x

   Hold E5 (vocal entra aqui)
E|------|
B|------|
G|------|
D|------|
A|-2----|
E|-0----|

Riff B (1x)
Hold E5
Riff B (1x)

Riff C
E|-----------------|
B|-----------------|
G|-----------------|
D|-11---8----------| 4x
A|-10-----9-10-----|
E|-------------2-3-|  
       Things tend to drag me down... 

Intro riff 
Fill 1
Riff A (4x)
Fill 2
Riff B (2x)
E chord
Riff B
E (Acorde) ( Live in a hole, but... )
Riff B
Riff C (4x)
Intro riff again
Fill 1

E|------|
B|------|
G|------|
D|------|
A|-2----|
E|-0----|
  Hold and drop off with tremolo bar

Riff C 
E|-------------------------|---------------------|
B|-------------------------|-----------6---5---4-|
G|-------------------------|-----------6---5---4-|
D|-------------------------|-----------6---5---4-|
A|-------------4--3--2-----|---------  4---3---2-|
E|-2-----2--5--------------|-2----2--5-----------|
                                      wah wah wah
E|-------------------------|---------------------|
B|-------------------------|-----------6---5---4-|
G|-------------------------|-----------6---5---4-|
D|-------------3--2--1-----|-----------6---5---4-|
A|-------------4--3--2-----|---------  4---3---2-|
E|-2-----2--5--------------|-2----2--5-----------|
                                      wah wah wah
Solo 1
Riff C 
Solo 2
Intro riff 
Fill 1
Riff A
Riff A 

Outro:
E|---------------------------------|
B|---------------------------------|
G|---------------------------------|
D|---------------------------------|
A|--6--2----5--2----3----2---------|
E|--4--0----3--0----1----0---------|
Composição de Pantera
Colaboração e revisão:
  • Pedro Rodrigues
228 exibições
    • ½ Tom
    • A
    • Bb
    • B
    • C
    • Db
    • D
    • Eb
    • E
    • F
    • F#
    • G
    • Ab
  • Adicionar à lista

    0 comentários

    Ver todos os comentários

    Conseguiu tocar?

    0 Tocaram 0 Ainda não

    Grave um vídeo tocando Live In A Hole e nos envie!

    00:00 / 00:00
    Outros vídeos desta música
    Repetir Qualidade Automático
    Outros vídeos desta música
    00:00 / 00:00
    Automático

    Cifra Club Pro

    Aproveite o Cifra Club com benefícios exclusivos e sem anúncios
    Cifra Club Pro
    Aproveite o Cifra Club com benefícios exclusivos e sem anúncios
    OK