Cifra Club

Aprenda

Medicine Man

Pantera

Cifra: Principal (violão e guitarra)
tom: E
(intro and chorus)
1||-----------------|-----------------||-----------------|-----------------||
2||-----------------|-----------------||-----------------|-----------------||
3||-----------------|-------___n.h___-||-----------------|-----------------||
4||-----------------|-------5-5-5-5-5-||-----------------|-----------------||
5||-0-0-0-0-0-0-0-2-|---3-------------||-------2p0-3-----|-----2p0-3-------||
6||-0-0-0-0-0-0-0-2-|---3-------------||-0-2-3---------0-|-2-3-------------||

   (ending)                         (fill 1) (two guitars)
1||-----------------|-----------||--------------------|--------------------------||
2||-----------------|-----------||-4-6-7-4h5p4--4-----|--------------------------||
3||-----------------|-----------||-5-7-8-5h7p57-5-5-7-|-3h5p3\2-3-2h3p2\0---2----||
4||-----------------|-----------||------------8---7-8-|-5h7p5\3-5-3h5p3\1---3-3~-||
5||-0-0-0-0-0-0-0-2-|---3---4-5-||--------------------|-----------------------5~-||
6||-0-0-0-0-0-0-0-2-|---3---4-5-||--------------------|--------------------------||

                                        (verse)
1||-----------------|-----------------||---------|--------|---------|--------||
2||-----------------|-----------------||---------|--------|---------|--------||
3||-----------------|-----------------||-7-------|--------|-7-------|--------||
4||-7-----5-----4---|-----2-----------||---------|--------|---------|--------||
5||-5-----3-----2---|-----0---5-3-----||-4-------|--------|-5-------|--------||
6||-0---------------|---------5-3-----||---------|--------|---------|--------||

   (verse ending )              (solo)
1||-----------------||------||------|------||
2||-----------------||------||------|------||
3||-----------------||------||------|------||
4||-----4---4-------||-0----||-6----|-0----||
5||-3-5-2---2-3~----||-0----||-6----|-0----||
6||-3-5-------3~----||-0----||-6----|-0----||

   (end of solo)
1||-----------------|-----------------|-----------------|-----------------|
2||-----------------|-----------------|-----------------|-----------------|
3||-----------------|-----------------|-----------------|-----------------|
4||-----------------|-----------------|-----------------|-----------------|
5||-6---------6-----|---6-------6-6-6-|-6---------6-----|---6-------6-6-6-|
6||-6-----6-6-6---6-|-6-6---6-6-6-6-6-|-6-----6-6-6---6-|-6-6---6-6-6-6-6-|

1||-----------------|-----------------|-----------------|------------------||
2||-----------------|-----------------|-----------------|------------------||
3||-----------------|-----------------|-----------------|------------------||
4||-----------------|-----------------|-----------------|------------------||
5||-8---------8-----|---8-------8-8-8-|-9---------9-----|---10-------5-\-3-||
6||-8-----8-8-8---8-|-8-8---8-8-8-8-8-|-9-----9-9-9---9-|-9-10-------5-\-3-||

   (fill 2) (two guitars)
1||--------------------|------------------||
2||-4-6-7-4h5p4--4-----|------------------||
3||-5-7-8-5h7p57-5-5-7-|-3-5---3----------||
4||------------8---7-8-|-5-7-7-5-5-7-3~---||
5||--------------------|-----8---6-8-5~---||
6||--------------------|------------------||

   (outro solo)
1||-----------------|-----------------||-----------------|-----------------||
2||-----------------|-----------------||-----------------|-----------------||
3||-----------------|-----------------||-----------------|-----------------||
4||-----------------|-----------------||-----------------|-----------------||
5||-6---------6-----|---6-------6-6-6-||-0---------------|-----------0-0-0-||
6||-6-----6-6-6---6-|-6-6---6-6-6-6-6-||-0-----0-0-0-0-0-|-0-0-0-0-0-0-0-0-||
Composição de Pantera
Colaboração e revisão:
  • Rodrigo Piva
989 exibições
    • ½ Tom
    • A
    • Bb
    • B
    • C
    • Db
    • D
    • Eb
    • E
    • F
    • F#
    • G
    • Ab
  • Adicionar à lista

    0 comentários

    Ver todos os comentários

    Conseguiu tocar?

    0 Tocaram 0 Ainda não

    Grave um vídeo tocando Medicine Man e nos envie!

    00:00 / 00:00
    outros vídeos desta música
    repetir qualidade Automático
    Outros vídeos desta música
    00:00 / 00:00
    Automático

    Cifra Club Pro

    Aproveite o Cifra Club com benefícios exclusivos e sem anúncios
    Cifra Club Pro
    Aproveite o Cifra Club com benefícios exclusivos e sem anúncios
    OK