Cifra Club

Aprenda

Message In Blood

Pantera

Cifra: Principal (violão e guitarra)
Quer fazer aulas de música com a gente? Responda essas perguntas
e nos ajude nesse projeto! →
tom: E
Riff da Intro:

E|-(4x)--------|------------------------------------------------------|
B|-------------|------------------------------------------------------|
G|-------------|------------------------------------------------------|
D|-------------|------------------------------------------------------|
A|13---12---8--|13---12---8---12---11---7---11---10---6---10---9---5--|
E|13---12---8--|13---12---8---12---11---7---11---10---6---10---9---5--|

E|-(2x)----------------------------------|
B|---------------------------------------|
G|---------------------------------------|
D|---------------------------------------|
A|3---3-3-3---3-3-3---3---3-3-3---3-3-3--|
E|3---3-3-3---3-3-3---3---3-3-3---3-3-3--|

Riff do Refrão (2x):

E|---------------------------------------------------------------|
B|---------------------------------------------------------------|
G|---------------------------------------------------------------|
D|---------------------------------------------------------------|
A|5---5---3---5---5---3---5---5---3---5---5---3---5---5---5---3--|
E|5---5---3---5---5---3---5---5---3---5---5---3---5---5---5---3--|

E|--------------------------------------------------------------------|
B|--------------------------------------------------------------------|
G|--------------------------------------------------------------------|
D|--------------------------------------------------------------------|
A|10---9---5---9---10---6---10---9---5---9---10---6---10---9---5---3--|
E|10---9---5---9---10---6---10---9---5---9---10---6---10---9---5---3--|

E|---------------------------------------------------------------|
B|---------------------------------------------------------------|
G|---------------------------------------------------------------|
D|---------------------------------------------------------------|
A|5---5---3---5---5---3---5---5---3---5---5---3---5---5---5---3--|
E|5---5---3---5---5---3---5---5---3---5---5---3---5---5---5---3--|
                                                    
E|-------------------------------------------------|(Parte Final)-----|
B|-------------------------------------------------|------------------|
G|---------------------------------------2nd.time->|5b(8)-r-b-r-\-----|
D|---------------------------------------1st.time->|6b(9)-r-b-r-\-----|
A|9---8---5---9---10---6---9---8---5---9---10---6--|------------------|
E|9---8---5---9---10---6---9---8---5---9---10---6--|------------------|

Ponte A (4x):

E|------------------------------------|---------------|
B|------------------------------------|---------------|
G|------------------------------------|---------------|
D|1---------------4b-r----------------|--------0------|
A|3---3---3---3----------5---5---5---A|0-1-2-3---4-3-B|
E|-----------------------5---5---5---A|---------------|

E|----------------------|---------|------|------|------|------|
B|----------------------|---------|------|------|------|------|
G|----------------------|---------|4-----|1-----|4-----|1-----|
D|----------------------|---------|4-----|1-----|4-----|1-----|
A|4---4---4---4---3b-r--|3---3---G|------|------|------|------|
E|4---4---4---4---------|3---3---G|------|------|------|------|

Ponte B:

E|---------------------------------|
B|---------------------------------|
G|---------------------------------|
D|1--------------------------------|
A|3---------------0----------\-----|
E|----------------4----------\-----|

Verso (2x):

E|------------------------------------------------|-----------------------|
B|------------------------------------------------|-----------------------|
G|------------------------------------------------|-----------------------|
D|------------------------------------------------|--------5--------------|
A|3---3-3-3-6-----------------------3---------1-2-|3---3-3---6------------|
E|------------5---5-5-5-8-4---4-4-4---3---3-3-----|------------5---5-5-5-0|

E|-----------|-----------|-----------|-----------|
B|-----------|-----------|-----------|-----------|
G|-----------|-----------|-----------|-----------|
D|-----------|-----------|-----------|-----------|
A|3---3---.--|3---3---.--|3---3---.--|3---3---.--|
E|3---3---.--|3---3---.--|3---3---.--|3---3---.--|

Verso:

I -(3x)
E|------------------------------------------------------------------------|
B|------------------------------------------------------------------------|
G|------------------------------------------------------------------------|
D|1---------------1---4---------------------------------------------------|
A|3---3---3---3-----------5-------------------4---4-------------------3---|
E|------------------------5---5---5---5---8-------4---4---4---4---8-------|

E|-----------------------|
B|-----------------------|
G|-----------------------|
D|-----------------------|
A|3-----------3---3---x--|
E|3---3---3---3---3---x--|

II
E|-----------------------------------------------|
B|-----------------------------------------------|
G|-----------------------------------------------|
D|1---------------1---4--------------------------|
A|3---3---3---3-----------5-----------5---5---x--|
E|------------------------5---5---5---5---5---x--|

E|-----------------------------------------------------------|
B|-----------------------------------------------------------|
G|-----------------------------------------------------------|
D|10---9--------9---8-------8---7-------7---6----------------|
A|8----7--------7---6-------6---5-------5---4----------------|
E|---------10-----------9-----------8-----------7---6-~-~-~--|

(Riff do Refrão) 2x

(Ponte A) 2x

(Ponte B)

(Verso)

Riff do Refrão C:

E|---------------------------------------------------------------|
B|---------------------------------------------------------------|
G|---------------------------------------------------------------|
D|---------------------------------------------------------------|
A|5---5---3---5---5---3---5---5---3---5---5---3---5---5---5---3--|
E|5---5---3---5---5---3---5---5---3---5---5---3---5---5---5---3--|

E|--------------------------------------------------------------------|
B|--------------------------------------------------------------------|
G|--------------------------------------------------------------------|
D|--------------------------------------------------------------------|
A|10---9---5---9---10---6---10---9---5---9---10---6---10---9---5---3--|
E|10---9---5---9---10---6---10---9---5---9---10---6---10---9---5---3--|

E|---------------------------------------------------------------|
B|---------------------------------------------------------------|
G|---------------------------------------------------------------|
D|---------------------------------------------------------------|
A|5---5---3---5---5---3---5---5---3---5---5---3---5---5---5---3--|
E|5---5---3---5---5---3---5---5---3---5---5---3---5---5---5---3--|
                                                  
E|-------------------------------------------------|------------------|
B|-------------------------------------------------|------------------|
G|-------------------------------------------------|------------------|
D|-------------------------------------------------|6b(9)-r-b-r-\-----|
A|9---8---5---9---10---6---9---8---5---9---10---6--|------------------|
E|9---8---5---9---10---6---9---8---5---9---10---6--|------------------|

E|---------------------------------------------------------------|
B|---------------------------------------------------------------|
G|---------------------------------------------------------------|
D|---------------------------------------------------------------|
A|5---5---3---5---5---3---5---5---3---5---5---3---5---5---5---3--|
E|5---5---3---5---5---3---5---5---3---5---5---3---5---5---5---3--|

E|--------------------------------------------------------------------|
B|--------------------------------------------------------------------|
G|--------------------------------------------------------------------|
D|--------------------------------------------------------------------|
A|10---9---5---9---10---6---10---9---5---9---10---6---10---9---5---3--|
E|10---9---5---9---10---6---10---9---5---9---10---6---10---9---5---3--|

E|---------------------------------------------------------------|
B|---------------------------------------------------------------|
G|---------------------------------------------------------------|
D|---------------------------------------------------------------|
A|5---5---3---5---5---3---5---5---3---5---5---3---5---5---5---3--|
E|5---5---3---5---5---3---5---5---3---5---5---3---5---5---5---3--|
 
E|-(2x) --------------------------------------------------------------|
B|--------------------------------------------------------------------|
G|--------------------------------------------------------------------|
D|--------------------------------------------------------------------|
A|9---8---5---9---10---6---9---8---5---9---10---6\--------------------|
E|9---8---5---9---10---6---9---8---5---9---10---6\--------------------|

Solo:

E|15b(17)----(17)---(17)----------(17)---(17)---------(17)---(17)-----------|
B|12b(15)----(15)---(15)-18-~-~---(15)---(15)-17-~-~--(15)---(15)-16-~-~--\-|
G|-----------------------14-~-~---------------13-~-~--------------12-~-~--\-|
D|--------------------------------------------------------------------------|
A|--------------------------------------------------------------------------|
E|--------------------------------------------------------------------------|

E|15---16-------------------------------------------------|
B|--------18---\----------------------10b(12)-------------|
G|12---13-------------------------------------------------|
D|--------15---\-----/10-~-~-~-\-/9-~-----------8-~-~-~-\-|
A|--------------------------------------------------------|
E|--------------------------------------------------------|

E|----------------------------------------------------------------------|
B|---------------pb10(12)-r-b(12)--------~---r(10)---8--------8---------|
G|8------------------------------------------------------10-------8b(9)-|
D|10---~---~---~--------------------------------------------------------|
A|----------------------------------------------------------------------|
E|----------------------------------------------------------------------|

E|----------------------------------------------------------------------|
B|10b(12)---r(10)---8--------10-----------------------------------------|
G|----------------------10--------10---8b(9)--------10------------------|
D|---------------------------------------------10--------10---~---~--.--|
A|----------------------------------------------------------------------|
E|----------------------------------------------------------------------|

E|-----------------------------------------|
B|-----------------------------------------|
G|10b(11)-r-b(11)-r(10)---8----------------|
D|---------------------------10--10--8-----|
A|--------------------------------------10-|
E|-----------------------------------------|

E|---------------------------------------------------|
B|---------------------------------------------------|
G|--------11---~---11---~-----------10---~---10---~--|
D|---------------------------------------------------|
A|9---~---------------------8---~--------------------|
E|---------------------------------------------------|

E|------------------------------------------|
B|10---~---~---12-b-r-10-12-----------------|
G|10---~---~---12-b-r-10-12-----------------|
D|--------------------------12---~---~---~-\|
A|------------------------------------------|
E|------------------------------------------|

E|---------------------------------------------------10-12-13-12-10-1A|
B|--------------------------------|10-11-13-11-10-13------------------|
G|-----------------9-10-12-10-9-1B|-----------------------------------|
D|/9-10-12-10-9-12----------------|-----------------------------------|
A|--------------------------------------------------------------------|
E|--------------------------------------------------------------------|

E|12-13-15-13-12-17|13-15-17-15-13----13-18-------15-13-17-13-18------|
B|-----------------|---------------17---------------------------------|
G|--------------------------------------------------------------------|
D|--------------------------------------------------------------------|
A|--------------------------------------------------------------------|
E|--------------------------------------------------------------------|

E|15-13----1G|17/22b(23)---20.--19.--18.-17h18p17----17---------------|
B|------17---|------------------------------------20----20b(22)---~-~\|
G|--------------------------------------------------------------------|
D|--------------------------------------------------------------------|
A|--------------------------------------------------------------------|
E|--------------------------------------------------------------------|

E|-------------------------------(0)---------------------------|
B|--------------------(0)--------------------------------------|
G|-------------------------------/9---9-7---6------------------|
D|7b(8)----r-5-7-----5-7b(8)-r-5----------------7b(8)-r-5------|
A|-----------------7--------------------------------------7----|
E|-------------------------------------------------------------|

E|----------------------------------------------|
B|----------------------------------------------|
G|----------------------------------------------|
D|----------------------------------14--12--11--|
A|-----------12--10--9-|14--12--10--------------|
E|12--10--9------------|------------------------|

E|-----------------------------------------------------------------------|
B|-----------------------------------------------------------------------|
G|14-14-12-11-13-13-11-10-14-14-12-11-15-15-13-12-16-16-14-13-17-17-15-1D|
D|-----------------------------------------------------------------------|
A|-----------------------------------------------------------------------|
E|-----------------------------------------------------------------------|

E|-----------------------|
B|-----------------------|
G|18-18-16-15-19-19-17-1E|
D|-----------------------|
A|-----------------------|
E|-----------------------|

E|----------------18----------------------------20------20------|
B|19b(20)------------------pb(20)-r(19)-b(20)------(20)---------|
G|--------------------------------------------------------------|
D|--------------------------------------------------------------|
A|--------------------------------------------------------------|
E|--------------------------------------------------------------|

E|--------------21------21-------21 (
B|pb(20)-r--b------(20)-------------(   at the whammy here..)---|
G|--------------------------------------------------------------|
D|--------------------------------------------------------------|
A|--------------------------------------------------------------|
E|-----------------------------------------------------(phew..)-|

Riff pós solo:

E|(PRE)----|-(3x)-------------------------------------------|
B|---------|------------------------------------------------|
G|---------|------------------------------------------------|
D|---------|------------------------------------------------|
A|---------|5---5---3(s)8---5---10-b-r---8---5---8(s)3---4--|
E|17\------|5---5---3(s)8---5---10-b-r---8---5---8(s)3---4--|

E|------------------------------------------------|
B|------------------------------------------------|
G|------------------------------------------------|
D|------------------------------------------------|
A|5---5---3(s)8---5---10-b-r---8---5---8---5---6--|
E|5---5---3(s)8---5---10-b-r---8---5---8---5---6--|

E|---------------------------------------------------|
B|---------------------------------------------------|
G|---------------------------------------------------|
D|---------------------------------------------------|
A|7---7---5---10---7---12-b-r---10---7---10---5---6--|
E|7---7---5---10---7---12-b-r---10---7---10---5---6--|

E|---------------------------------------------------|
B|---------------------------------------------------|
G|---------------------------------------------------|
D|------------5--------------------------------------|
A|7---7---5---10---7---12-b-r---10---7---10---5---6--|
E|7---7---5---10---7---12-b-r---10---7---10---3---4--|

E|-(2x)-------------------------------------------|
B|------------------------------------------------|
G|------------------------------------------------|
D|------------------------------------------------|
A|5---5---3(s)8---5---10-b-r---8---5---8(s)3---4--|
E|5---5---3(s)8---5---10-b-r---8---5---8(s)3---4--|

(Riff da Intro)

(Riff do Refrão) 2x

Outro:

  Pt.I -(2x)

E|-------------------------------|
B|-------------------------------|
G|-------------------------------|
D|-------------------------------|
A|3---3-3-3---3-3-3---3---3-3-3--|
E|3---3-3-3---3-3-3---3---3-3-3--|

E|---------------------------------------------------------------|
B|---------------------------------------------------------------|
G|---------------------------------------------------------------|
D|---------------------------------------------------------------|
A|5---5---3---5---5---3---5---5---3---5---5---3---5---5---6---6--|
E|5---5---3---5---5---3---5---5---3---5---5---3---5---5---6---6--|

  Pt.II:

E|---------------------------------------------------------------------|
B|---------------------------------------------------------------------|
G|---------------------------------------------------------------------|
D|8---8-8-8---8-8-7---6---6-6-6---5-5-5---4---4-4-4---3-3-3------------|
A|6---6-6-6---6-6-5---4---4-4-4---3-3-3---2---2-2-2---1-1-1---6---5---.|
E|------------------------------------------------------------6---5---.|
Composição de Pantera
Colaboração e revisão:
  • Pedro Rodrigues
263 exibições
    • ½ Tom
    • A
    • Bb
    • B
    • C
    • Db
    • D
    • Eb
    • E
    • F
    • F#
    • G
    • Ab
  • Adicionar à lista

    0 comentários

    Ver todos os comentários

    Conseguiu tocar?

    0 Tocaram 0 Ainda não

    Grave um vídeo tocando Message In Blood e nos envie!

    00:00 / 00:00
    Outros vídeos desta música
    Repetir Qualidade Automático
    Outros vídeos desta música
    00:00 / 00:00
    Automático

    Cifra Club Pro

    Aproveite o Cifra Club com benefícios exclusivos e sem anúncios
    Cifra Club Pro
    Aproveite o Cifra Club com benefícios exclusivos e sem anúncios
    OK