Cifra Club

Aprenda

Month for War

Pantera

Cifra: Principal (violão e guitarra)
tom: F#
Intro:

E|--------------------------------------------------------|
B|--------------------------------------------------------|
G|--------------------------------------------------------|
D|---------------4-----------------4---4---4--------------|
A|-----1-2-2-2-2-2-2-2-2-1-2-2-2-2-2-2-2-2-2--(4x)--------|
E|--------------------------------------------------------|

E|--------------------------------------------------------|
B|--------------------------------------------------------|
G|--------------------------------------------------------|
D|--------------------------------------------------------|
A|----5/9-----5-----5/9-----5/9-----5---(3x)--------------|
E|-0--3/7--0--3--0--3/7--0--3/7--0--3---------------------|

E|-----------------------3(HA)--3(HA)--3(HA)--------------|
B|-----------------------3(HA)--3(HA)--3(HA)--------------|
G|-----------------------3(HA)--3(HA)--3(HA)--------------|
D|------------------9\------------------------------------|
A|----5/9-----5-------------------------------------------|
E|-0--3/7--0--3--0--7\------------------------------------|

E|--------------------------------------------------------|
B|--------------------------------------------------------|
G|--------------------------------------------------------|
D|--------------------------------------------------------|
A|2-2-8---9/10---7/8---5---5/7---4/5---8---9/10--7/8---5--|
E|0-0-6-X-7/8--X-5/6-X-3-X-3/5-X-2/3-X-6-X-7/8-X-5/6-0-3-0|

E|---------------3(HA)--3(HA)--3(HA)----------------------|
B|---------------3(HA)--3(HA)--3(HA)----------------------|
G|---------------3(HA)--3(HA)--3(HA)----------------------|
D|--------------------------------------------------------|
A|--------------------------------------------------------|
E|--------------------------------------------------------|

E|--------------------------------------------------------|
B|--------------------------------------------------------|
G|--------------------------------------------------------|
D|--------------------------------------------------------|
A|2-2-8---9/10---7/8---5---5/7---4/5---8---9/10--7/8---5--|
E|0-0-6-X-7/8--X-5/6-X-3-X-3/5-X-2/3-X-6-X-7/8-X-5/6-0-3-0|

E|-----------------3(HA)--3(HA)---------------------------|
B|-----------------3(HA)--3(HA)---------------------------|
G|-----------------3(HA)--3(HA)---------------------------|
D|--------------------------------------------------------|
A|--------------------------------------------------------|
E|--------------------------------------------------------|

 Verses:

E|---------------------------------------------------------|
B|---------------------------------------------------------|
G|---------------------------------------------------------|
D|---------------------------------------------------------|
A|2-2---8---9/10--7/8---5---5/7---4/5---8---9/10--7/8---5--|
E|0-0-0-6-X-7/8-X-5/6-X-3-X-3/5-X-2/3-X-6-X-7/8-X-5/6-0-3-0|

E|---------------3(HA)--3(HA)--3(HA)----------------------|
B|---------------3(HA)--3(HA)--3(HA)----------------------|
G|---------------3(HA)--3(HA)--3(HA)----------------------|
D|--------------------------------------------------------|
A|--------------------------------------------------------|
E|--------------------------------------------------------|

E|--------------------------------------------------------|
B|--------------------------------------------------------|
G|--------------------------------------------------------|
D|--------------------------------------------------------|
A|2-2-8---9/10---7/8---5---5/7---4/5---8---9/10--7/8---5--|
E|0-0-6-X-7/8--X-5/6-X-3-X-3/5-X-2/3-X-6-X-7/8-X-5/6-0-3-0|

E|---------------3(HA)--3(HA)--3(HA)----------------------|
B|---------------3(HA)--3(HA)--3(HA)----------------------|
G|---------------3(HA)--3(HA)--3(HA)----------------------|
D|--------------------------------------------------------|
A|--------------------------------------------------------|
E|--------------------------------------------------------|

E|--------------------------------------------------------|
B|--------------------------------------------------------|
G|--------------------------------------------------------|
D|--------------------------------------------------------|
A|2-2-8---9/10---7/8---5---5/7---4/5---8---9/10--7/8---5--|
E|0-0-6-X-7/8--X-5/6-X-3-X-3/5-X-2/3-X-6-X-7/8-X-5/6-0-3-0|

E|---------------3(HA)--3(HA)--3(HA)----------------------|
B|---------------3(HA)--3(HA)--3(HA)----------------------|
G|---------------3(HA)--3(HA)--3(HA)----------------------|
D|--------------------------------------------------------|
A|--------------------------------------------------------|
E|--------------------------------------------------------|

E|--------------------------------------------------------|
B|--------------------------------------------------------|
G|--------------------------------------------------------|
D|--------------------------------------------------------|
A|2-2-8---9/10---7/8---5---5/7---4/5---8---9/10--7/8---5--|
E|0-0-6-X-7/8--X-5/6-X-3-X-3/5-X-2/3-X-6-X-7/8-X-5/6-0-3-0|

E|------------3(HA)--3(HA)--3(HA)--3(HA)------------------|
B|------------3(HA)--3(HA)--3(HA)--3(HA)------------------|
G|------------3(HA)--3(HA)--3(HA)--3(HA)------------------|
D|--------------------------------------------------------|
A|--------------------------------------------------------|
E|--------------------------------------------------------|

 Pre-Chorus:

E|--------------------------------------------------------|
B|--------------------------------------------------------|
G|--------------------------------------------------------|
D|---------------4-----------------4---4---4--------------|
A|-----1-2-2-2-2-2-2-2-2-1-2-2-2-2-2-2-2-2-2--(4x)--------|
E|--------------------------------------------------------|

E|--------------------------------------------------------|
B|--------------------------------------------------------|
G|--------------------------------------------------------|
D|--------------------------------------------------------|
A|----5/9-----5-----5/9-----5/9-----5---(3x)--------------|
E|-0--3/7--0--3--0--3/7--0--3/7--0--3---------------------|

E|-----------------------3(HA)--3(HA)--3(HA)--------------|
B|-----------------------3(HA)--3(HA)--3(HA)--------------|
G|-----------------------3(HA)--3(HA)--3(HA)--------------|
D|------------------9\------------------------------------|
A|----5/9-----5-------------------------------2-----------|
E|-0--3/7--0--3--0--7\------------------------0-----------|

 Chorus 2:

E|--------------------------------------------------------|
B|--------------------------------------------------------|
G|--------------------------------------------------------|
D|--------------------------------------------------------|
A|----5/9-----5-----5/9-----5/9-----5---(3x)--------------|
E|-0--3/7--0--3--0--3/7--0--3/7--0--3---------------------|

E|--------------------------------------------------------|
B|--------------------------------------------------------|
G|--------------------------------------------------------|
D|--------------------------------------------------------|
A|----5/9-----5-----5/9-----5/9-----5---------------------|
E|-0--3/7--0--3--0--3/7--0--3/7--0--3--0------------------|

 Solo:

E|--------------------------------------------------------|
B|-----------9b11------8--11--11b13--11b15--11--8\--------|
G|-----8-----------/8-------------------------------------|
D|-/6-----6-----------------------------------------------|
A|--------------------------------------------------------|
E|--------------------------------------------------------|

E|--------------------------------------------------------|
B|--------------------------------------------------------|
G|-/11--11--11--11--11\---/11--11--11--11/13--------------|
D|-/8---8---8---8----8\---/8---8---8----8/10--------------|
A|--------------------------------------------------------|
E|--------------------------------------------------------|

E|-----16-19-19b21-21b23-19-21b23r21-21b23--b23r21--21b23-|
B|-/16----------------------------------------------------|
G|--------------------------------------------------------|
D|--------------------------------------------------------|
A|--------------------------------------------------------|
E|--------------------------------------------------------|

 e|b23r21b23-b23(al)------------------------------------------|
B|-----------23(al)-------------------------------------------|
G|------------------------------------------------------------|
D|------------------------------------------------------------|
A|----------------------------------13-------13-14----13-14-16|
E|----------------13-15-16-13-15-16----15-16-------16---------|

E|--------------------------------------------------------|
B|----------------------------------------------------14--|
G|----------------------------------13-------13-15-16-----|
D|----------14----13-14-16-13-14-16----14-16--------------|
A|-13-14-16----16-----------------------------------------|
E|--------------------------------------------------------|

E|-------16-------------16-------------16-------------16--|
B|-18b20----19p16-19b21----19p16----------19p16-19b21-----|
G|-------------------------------18b20--------------------|
D|--------------------------------------------------------|
A|--------------------------------------------------------|
E|--------------------------------------------------------|

E|-------------16-------------16-------------16-----------|
B|-19p16----------19p16-19b21----19p16----------19p16-----|
G|-------18b20-------------------------18b20--------------|
D|--------------------------------------------------------|
A|--------------------------------------------------------|
E|--------------------------------------------------------|

E|-19b21-16h19p16-----------------------------------------|
B|----------------19b21-----------------------------------|
G|--------------------------------------------------------|
D|--------------------------------------------------------|
A|--------------------------------------------------------|
E|--------------------------------------------------------|

 Base Solo:

E|--------------------------------------------------------|
B|--------------------------------------------------------|
G|--------------------------------------------------------|
D|--------------------------------------------------------|
A|----------2-------6-5-4--2-2-4-2--7-6-5---(3x)----------|
E|--2h4-4-4---4-4-4------------2-0------------------------|

E|--------------------------------------------------------|
B|--------------------------------------------------------|
G|--------------------------------------------------------|
D|--------------------------------------------------------|
A|----------2-------6-5-4--2-2-4-2--(al)------------------|
E|--2h4-4-4---4-4-4------------2-0--(al)------------------|

 Intelude 1:

E|---------------------------------------3(HA)al----------|
B|---------------------------------------3(HA)al----------|
G|---------------------------------------3(HA)al----------|
D|-----------------8-7-6-4--4------9-8-7------------------|
A|-4/6-6-6-9-6-6-6-6-5-4-2--2-4-2--7-6-5------------------|
E|-2/4-4-4-7-4-4-4------------2-0-------------------------|

E|--------------------------------------------------------|
B|--------------------------------------------------------|
G|--------------------------------------------------------|
D|-----------------8-7-6-4--4------9-8-7------------------|
A|-4/6-6-6-9-6-6-6-6-5-4-2--2-4-2--7-6-5------------------|
E|-2/4-4-4-7-4-4-4------------2-0-------------------------|

 Intelude 2:

E|--------------------------------------------------------|
B|--------------------------------------------------------|
G|--------------------------------------------------------|
D|--------------------------------------------------------|
A|--6-6-6\4-6-6-6\4-----------------------------5---------|
E|--4-4-4\2-4-4-4\2--(6x)---4-4-4-4-4-4-4-(2x)--7---------|

E|--------------------------------------------------------|
B|--------------------------------------------------------|
G|--------------------------------------------------------|
D|--------------------------------------------------------|
A|--4/6---------------------3---4/6---------------------5-|
E|--2/4-4-4-4-4-4-4-4-(2x)--5---2/4-4-4-4-4-4-4-4-(2x)--7-|

E|--------------------------------------------------------|
B|--------------------------------------------------------|
G|--------------------------------------------------------|
D|--------------------------------------------------------|
A|-4/6----------------------3---6-6-6\4-6-6-6\4-----------|
E|-2/4-4-4-4-4-4-4-4-(2x)---5---4-4-4\2-4-4-4\2-----------|

E|--------------------------------------------------------|
B|--------------------------------------------------------|
G|--------------------------------------------------------|
D|--------------------------------------------------------|
A|---------------------5--4/6---------------------3-------|
E|-4-4-4-4-4-4-4-(2x)--7--2/4-4-4-4-4-4-4-4-(2x)--5-------|

E|--------------------------------------------------------|
B|--------------------------------------------------6-----|
G|--------------------------------------------------5-----|
D|--------------------------------------------------6-----|
A|-4---------------------5--4/6---------------------5-----|
E|-2/4-4-4-4-4-4-4-(2x)--7--2/4-4-4-4-4-4-4-4-(2x)--------|

E|--------------------------------------------------------|
B|--------------------------------------------------------|
G|--------------------------------------------------------|
D|--------------------------------------------------------|
A|--6-6-6\4-6-6-6\4---------------------------------------|
E|--4-4-4\2-4-4-4\2--(9x)---------------------------------|
Colaboração e revisão:
  • Lucas
  • Guilherme Rafael
  • Antonio Junior
16.661 exibições
    • ½ Tom
    • A
    • Bb
    • B
    • C
    • Db
    • D
    • Eb
    • E
    • F
    • F#
    • G
    • Ab
  • Adicionar à lista

    0 comentários

    Ver todos os comentários

    Conseguiu tocar?

    3 Tocaram 0 Ainda não

    Grave um vídeo tocando Month for War e nos envie!

    00:00 / 00:00
    outros vídeos desta música
    repetir qualidade Automático
    Outros vídeos desta música
    00:00 / 00:00
    Automático

    Cifra Club Pro

    Aproveite o Cifra Club com benefícios exclusivos e sem anúncios
    Cifra Club Pro
    Aproveite o Cifra Club com benefícios exclusivos e sem anúncios
    OK