Cifra Club

Aprenda

Piss

Pantera

Cifra: Principal (violão e guitarra)
Já pensou em usar uma coleção de roupas do Cifra Club? Responda as perguntas abaixo e nos ajude nessa missão! →
tom: Db
Afinação: C#

Intro (Riff do Refrão):
E|----------------------------------------------------------------------------------------------|
B|----------------------------------------------------------------------------------------------|
G|----------------------------------------------------------------------------------------------|
D|----------------------------------------------------------------------------------------------|
A|----------------------------------------------------------------------------------------4-3-4-|
E|---1-2-3-6-3--1-2-3-6-3---1-2-3-6-3--1-2-3-6-3--1-2-3-6-3--1-2-3-6-3--1-2-3-6-3---2-2s3-2-1-2-|

Intro 2:
E|-------------------------------------|----------------------|
B|-------------------------------------|----------------------|
G|-------------------------------------|----------------------|
D|--------7-9-7-9h10h11p10p9-7-9-7-----|----------------------|
A|--7-8h9h-9-9---------------------7-5-|------7-9-9p8p7--2-3--|
E|-------------------------------------|-7h8h9-9-9-------0-1--|

E|-------------------------------------|---------------------------------|
B|-------------------------------------|---------------------------------|
G|-------------------------------------|---------------------------------|
D|--------7-9-7-9h10h11p10p9-7-9-7-----|---------------------------------|
A|--7-8h9h-9-9---------------------7-5-|-4-4-4-4-4-4-4-4-4-4-4-4-4-4-4-4-|
E|-------------------------------------|-2-2-2-2-2-2-2-2-2-2-2-2-2-2-2-2-|

Verso:
E|-------------------------|-------------------------|----|
B|-------------------------|-------------------------|----|
G|-------------------------|-------------------------|----|
D|-------------------------|-------------------------|----|
A|---------5-------5-5-5s7-|---------5-------5-4-3s5-|----|
E|-0-3-4-5---7-6-3-3-3-3s5-|-0-3-4-5---7-6-3-3-2-1s3-|-0--|

Half assed for most his life
Done nothing but stand
Just because he's so small so
No one will give him a hand
The kinda guy that would steal your cast
And buy a burning house
Then call you up and invite you in
And jerk you off with a sandpaper hand

Pré-Refrão:
E|------------|
B|------------|
G|------------|
D|------------|
A|-5--4-3-2-1-|
E|-7--6-5-4-3-|

Refrão:
E|----------------------------------------------------------------------------------------------|
B|----------------------------------------------------------------------------------------------|
G|----------------------------------------------------------------------------------------------|
D|----------------------------------------------------------------------------------------------|
A|----------------------------------------------------------------------------------------4-3-4-|
E|---1-2-3-6-3--1-2-3-6-3---1-2-3-6-3--1-2-3-6-3--1-2-3-6-3--1-2-3-6-3--1-2-3-6-3---2-2s3-2-1-2-|

I'd leave him physically crippled
Without a leg to stand
I'd throw that trash away
Because a runt like that is piss in the wind
My fist would be the decider
I wasn't raised a fool
I'd stomp his ass for free
Because a punk like that is piss in the wind

Piss in the wind

Verso 2:
(Verso)
A go-getter who ain't got none
A legend in his mind
Always the one to invite himself
And then just left behind
Someone must of clipped his balls
Or wiped his ass of his life
A self centered procrastinator
Attention seeker who's got nothing at all

(Refrão)

I'd leave him physically crippled
Without a leg to stand
I'd throw that trash away
Because a runt like that is piss in the wind
My fist would be the decider
I wasn't raised a fool
I'd stomp his ass for free
Because a punk like that is piss in the wind

Solo:
E|-----------------2-2b(3)2-4-2-4b(5)-5-5-7b(9)--------|
B|-----------2-2b(3)2--2-------------------------------|
G|------------2----------------------------------------|
D|----6-6b(7)6-----------------------------------------|
A|--4--4-----------------------------------------------|
E|-2---------------------------------------------------|

E|-----------------2-2b(3)2-4-2-4b(5)-5h7p5-4----------|
B|-----------2-2b(3)2--2-------------------------------|
G|------------2----------------------------------------|
D|----6-6b(7)6-----------------------------------------|
A|-/4--4-----------------------------------------------|
E|-----------------------------------------------------|

E|-----------------2-2b(3)2-4-2-4b(5)-5-5---------12-----------------|
B|-----------2-2b(3)2--2-------------------12b(14)---12b(14)---------|
G|------------2------------------------------------------------------|
D|----6-6b(7)6-------------------------------------------------------|
A|--4--4-------------------------------------------------------------|
E|-2-----------------------------------------------------------------|

E|-----------------2-2b(3)2-4-2-4b(5)-5-5-7b(9)--------|
B|-----------2-2b(3)2--2-------------------------------|
G|------------2----------------------------------------|
D|----6-6b(7)6-----------------------------------------| (Harmônicos)
A|--4--4-----------------------------------------------|
E|-2---------------------------------------------------|

Outro 2x:
E|---------------------------------------------|
B|---------------------------------------------|
G|---------------------------------------------|
D|------------------7s8s7-5--------------------|
A|------------------5s6s5-3-----------x-5-x-6--|
E|---3-4-5-8-5--3-4---------3-4-5-8-5-x-3-x-4--|

(Refrão)

I'd leave him physically crippled
Without a leg to stand
I'd throw that trash away
Because a runt like that is piss in the wind
My fist would be the decider
I wasn't raised a fool
I'd stomp his ass for free
Because a punk like that is piss in the wind

Piss in the wind
Compositor não encontrado.
Colaboração e revisão:
  • Bruno Zolini
2.073 exibições
    • ½ Tom
    • A
    • Bb
    • B
    • C
    • Db
    • D
    • Eb
    • E
    • F
    • F#
    • G
    • Ab
  • Adicionar à lista

    0 comentários

    Ver todos os comentários

    Conseguiu tocar?

    1 Tocaram 0 Ainda não

    Grave um vídeo tocando Piss e nos envie!

    00:00 / 00:00
    Outros vídeos desta música
    Repetir Qualidade Automático
    Outros vídeos desta música
    00:00 / 00:00
    Automático

    Cifra Club Pro

    Aproveite o Cifra Club com benefícios exclusivos e sem anúncios
    Cifra Club Pro
    Aproveite o Cifra Club com benefícios exclusivos e sem anúncios
    OK