Cifra Club

Aprenda

The Badge

Pantera

Cifra: Principal (violão e guitarra)
Já pensou em usar uma coleção de roupas do Cifra Club? Responda as perguntas abaixo e nos ajude nessa missão! →
tom: Db
Tunning Eb Ab Db Gb Bb Eb 
  
 Intro 
 
 Exert from Taxi Driver 
 
 Verse 
 
 Riff A 
 
 {------PM-------}   {------PM-------}        h   h   
E|----------------------------------------------------| 
B|----------------------------------------------------| 
G|----------------------------------------------------| 
D|-----------------4-4--------------------------------| 
A|-2-2-2-2-2-2-2-2-2-2-2-2-2-2-2-2-2-2-1p0------------| 
E|-0-0-0-0-0-0-0-0-----0-0-0-0-0-0-0-0-----3-2-3-2-3--| Rpt 2 X 
 
 Riff B 
 
 {------PM-------}   {------PM-------}        h   h 
E|-------------------------------------------------------| 
B|-------------------------------------------------------| 
G|-------------------------------------------------------| 
D|-2-2-2-2-2-2-2-2-3-3-2-2-2-2-2-2-2-2-------------------| 
A|-0-0-0-0-0-0-0-0-1-1-0-0-0-0-0-0-0-0-5p3p0-2-3p2-3p----| 
E|---------------------------------------------------3-2-| 
 
 Rpt Riff A 3 X 
 Rpt Riff B 
 Rpt Riff A 
 
 Chorus 
              {--------------PM--------------} 
E|----------------------------------------------| 
B|----------------------------------------------| 
G|----------------------------------------------| 
D|----------------------------------------------| 
A-4--4-/5-\4--2-2-2-2-2-2-2-2-2-2-2-2-2-2-2-2--| 
e|-2--2-/3-\2--0-0-0-0-0-0-0-0-0-0-0-0-0-0-0-0--|  
 
               
E|----------------------------------------------| 
B|----------------------------------------------| 
G|----------------------------------------------| 
D|----------------------------------------------| 
A|-4--4-/5-\4--2-----------------(2)------------| 
E|-2--2-/3-\2--0-----------------(0)------------| 
 
 Interlude 
 
      {---------PM-------}     {---------PM-------}        
E|----------------------------------------------------| 
B|----------------------------------------------------| 
G|----------------------------------------------------| 
D|----------------------------------------------------| 
A|-7--7---7---7-7---7-7-7-7\6--6---6---6-6---6-6-6-6\-| 
e|-5--5-5-5-5-5-5-5-5-5-5-5\4--4-4-4-4-4-4-4-4-4-4-4\-| 
 
  Guitar 1 
       {---------PM-------}        
E{--------------------------------------------------------| 
B{--------------------------------------------------------| 
G{--------------------------------------------------------| 
D{--------------------------------------------------------| 
A{-5--5---5---5-5---5-5-5-5/8-----(8)----0-5-3-0-3-1------| 
E{-3--3-3-3-3-3-3-3-3-3-3-3/6-----(6)----------------3-1--| 
 {Guitar 2                        ~~~~~~~~ 
E{--------------------------------------------------------| 
B{-----------------------------------------5br3--5-3------| 
G{--------------------------------3--------5br3--5-3------| 
D{---------------------------------------------------5-3--| 
A{--------------------------------------------------------| 
E{--------------------------------------------------------| 
 
      {---------PM-------}     {---------PM-------}        
E|----------------------------------------------------| 
B|----------------------------------------------------| 
G|----------------------------------------------------| 
D|----------------------------------------------------| 
A|-7--7---7---7-7---7-7-7-7\6--6---6---6-6---6-6-6-6\-| 
e|-5--5-5-5-5-5-5-5-5-5-5-5\4--4-4-4-4-4-4-4-4-4-4-4\-| 
 
  Guitar 1 
       {---------PM-------} 
E{--------------------------------------------------------| 
B{--------------------------------------------------------| 
G{--------------------------------------------------------| 
D{--------------------------------------------------------| 
A{-5--5---5---5-5---5-5-5-5/8-----(8)----0-5-3-0-3-1------| 
E{-3--3-3-3-3-3-3-3-3-3-3-3/6-----(6)----------------3-1--| 
 {Guitar 2                        ~~~~~~~~ bend 
E{--------------------------------------------------------| 
B{--------------------------------------------------------| 
G{--------------------------------3-------666666rp4-------| 
D{--------------------------------------------------5-4-3-| 
A{--------------------------------------------------------| 
E{--------------------------------------------------------| 
 
 Rpt Riff A 2 X 
 Rpt Riff B
 Rpt Riff A 
 
  Chorus 
 
              {--------------PM--------------} 
E|----------------------------------------------| 
B|----------------------------------------------| 
G|----------------------------------------------| 
D|----------------------------------------------| 
A-4--4-/5-\4--2-2-2-2-2-2-2-2-2-2-2-2-2-2-2-2--| 
e|-2--2-/3-\2--0-0-0-0-0-0-0-0-0-0-0-0-0-0-0-0--|  
 
                  Trem Dive 
E|----------------------------------------------| 
B|----------------------------------------------| 
G|----------------------------------------------| 
D|----------------------------------------------| 
A|-4--4-/5-\4--2-----------------(2)------------| 
E|-2--2-/3-\2--0-----------------(0)------------| 
 
 Guitar solo 
 
 D5 
 
E|-----10-10-----10-10-----10-10-----10-----10-----10-| 
B|-10--10-10-10--10-10-10--10-10-10--10-10--10-10--10-| 
G|-12br------12br------12br------12br---12br---12br---| 
D|----------------------------------------------------| 
A|----------------------------------------------------| 
E|----------------------------------------------------| 
 
 Db5                       G5                  C5 Db5 D5   
 
E|----9---------9-------------------------------------| 
B|-9--9-9---9---9-9---9------8-8-8---8-8-8----1-2-3---| 
G|-11b--11br11br--11br11br\7b------7b------7b-3b4b5b/-| 
D|----------------------------------------------------| 
A|----------------------------------------------------| 
E|----------------------------------------------------| 
 
 D5 
 
E|--------------------------| 
B/15----15----15----15-15\-| 
G|----17b---17b---17b-------| 
D|--------------------------| 
A|--------------------------| 
E|--------------------------| 
 
 D5                                         Db5 
                                            ~~~~~~~ 
E|-----10-----10-----10-----10----10-----10-----------| 
B|-10--10-10--10-10--10-10--10-10-10--10-10-----------| 
G|-12br---12br---12br---12br---12br---12br--12--------| 
D|----------------------------------------------------| 
A|----------------------------------------------------| 
E|----------------------------------------------------| 
 
 Db5
       t     ~~~~ h~~~~~~~~ 
E|--------------------------| 
B|-10fb-15--10rb------------| 
G|-----------------9--------| 
D|--------------------------| 
A|--------------------------| 
E|--------------------------| 
 
 G5                   C5 Db5 D5 
 
E|----------------------------| 
B|---8-8-8---8-8-8----1-2-3---| 
G|-7b------7b------7b-3b4b5b/-| 
D|----------------------------| 
A|----------------------------| 
E|----------------------------| 
 
 D5 
 trem dive   Pull up on trem and vibrato 
E|-----------24------24-------| 
B|----------------------------| 
G|-5--------------------------| 
D|----------------------------| 
A|----------------------------| 
E|----------------------------| 
  
 A5                            Ab5 
                              ~~~~~~~~ph  ph~~ 
E|---5-5---5-5-5-5---5---5---5-----------------| 
B|-5-5-5-5-5-5-5-5-5-5-5-5-5-5-5---------------| 
G|-7b----7b----7b--7b--7b--7b--7b------7b7b77b-| 
D|---------------------------------------------| 
A|---------------------------------------------| 
E|---------------------------------------------| 
 
 G5                                     Bb5 
                                         ph~~~~~~~~~~~~~ 
E|----------------------------------------8-----------------| 
B|---8-8---8-8---8-8---8---8---8--8--8--8---------------3/--| 
G|-7b----7b----7b----7b--7b--7b-7b-7b-7b----------------3/--| 
D|----------------------------------------------------------| 
A|----------------------------------------------------------| 
E|----------------------------------------------------------| 
 
 A5 
 
e|-1717--1717--1717--1717--1717--1717--1717--1717--\-| 
B|-----17----17----17----17----17----17----17----17\-| 
G|---------------------------------------------------| 
D|---------------------------------------------------| 
A|---------------------------------------------------| 
E|---------------------------------------------------| 
 
 Ab5 
   
e|-1616--1616--1616--1616--1616--1616--1616--1616--\-| 
B|-----16----16----16----16----16----16----16----16\-| 
G|---------------------------------------------------| 
D|---------------------------------------------------| 
A|---------------------------------------------------| 
E|---------------------------------------------------| 
 
 G5                                                Bb5     
                                                  pull up on trem                       
E|-1515--1515--1515--1515--1515--1515--1515--1515-/18-------------| 
B|-----15----15----15----15----15----15----15---------------------| 
G|----------------------------------------------------------------| 
D|----------------------------------------------------------------| 
A|----------------------------------------------------------------| 
E|----------------------------------------------------------------| 
 
 
 Gradual bend 
        ph 
E|-------------| 
B|-------------| 
G|-55555555----| 
D|-------------| 
A|-------------| 
E|-------------| End of guitar solo 
 
 
              {--------------PM--------------} 
E|----------------------------------------------| 
B|----------------------------------------------| 
G|----------------------------------------------| 
D|----------------------------------------------| 
A-4--4-/5-\4--2-2-2-2-2-2-2-2-2-2-2-2-2-2-2-2--| 
e|-2--2-/3-\2--0-0-0-0-0-0-0-0-0-0-0-0-0-0-0-0--|  
 
                   
E|------------------------------------| 
B|------------------------------------| 
G|------------------------------------| 
D|------------------------------------| 
A|-4--4-/5-\4--2---2---2---2---2---2--| 
E|-2--2-/3-\2--0---0---0---0---0---0--| 
 
 {------PM-------}      
E|---------------------| 
B|---------------------| 
G|---------------------| 
D|-----------------4-4-| 
A-2-2-2-2-2-2-2-2-2-2-| 
E|-0-0-0-0-0-0-0-0-----| Rpt 3 X 
 
 {------PM-------}      
E|-------------------------------------| 
B|-------------------------------------| 
G|-------------------------------------| 
D|-----------------4-4------(4)--------| 
A|-2-2-2-2-2-2-2-2-2-2------(2)--------| 
E|-0-0-0-0-0-0-0-0---------------------| 
 
  
 {--PM--}  {--PM--}  {--PM--}  {--PM-} 
E|-------------------------------------------| 
B|-------------------------------------------| 
G|-------------------------------------------| 
D|-------------------------------------------| 
A-2-2-2-2-3-2-2-2-2-4-2-2-2-2-5-2-2-2-6/7/8-| 
e|-0-0-0-0-1-0-0-0-0-2-0-0-0-0-3-0-0-0-4/5/6-| Rpt 8 X 
 
 Ending 
 
E|--------------------------------------------------| 
B|--------------------------------------------------| 
G|--------------------------------------------------| 
D|-9-\7-\4--3--2------------------------------------| 
A|-7-\5-\2--1--0--5-----------(5)-----------2--2----| 
E|----------------3-----------(3)-----------0--0----| 

 Excert from Taxi Driver.
Compositor não encontrado.
Colaboração e revisão:
  • Anna Gabriella
1.469 exibições
    • ½ Tom
    • A
    • Bb
    • B
    • C
    • Db
    • D
    • Eb
    • E
    • F
    • F#
    • G
    • Ab
  • Adicionar à lista

    0 comentários

    Ver todos os comentários

    Conseguiu tocar?

    0 Tocaram 0 Ainda não

    Grave um vídeo tocando The Badge e nos envie!

    00:00 / 00:00
    Outros vídeos desta música
    Repetir Qualidade Automático
    Outros vídeos desta música
    00:00 / 00:00
    Automático

    Cifra Club Pro

    Aproveite o Cifra Club com benefícios exclusivos e sem anúncios
    Cifra Club Pro
    Aproveite o Cifra Club com benefícios exclusivos e sem anúncios
    OK