Enviar cifraEntrar

Walk

Pantera

Cifra: Principal
exibições 204.675
Tom: A
Intro:

Riff 1 - 2x:

   E5
E|-----------------------------------------
B|-----------------------------------------
G|-----------------------------------------
D|-----------------------------------------
A|-2---------------------------------------
E|-0--0-1b2r1-0--0-1b2r1-0--0-1b2r1-0--0---


E|-----------------------------------------
B|-----------------------------------------
G|-----------------------------------------
D|-----------------------------------------
A|-----------------------------------------
E|-1b2r1-0-0--1b2r1-0-0-1b2r1-0-0-1b2r1----


E|-----------------------------------------
B|-----------------------------------------
G|-----------------------------------------
D|-----------------------------------------
A|-----------------------------------------
E|-/\-/\-----------------------------------


Riff 2: E5  C5  Bb5  D#5  F5  G5  G#5  G5  F5


   E5             C5 E5           Bb5
E|-----------------------------------------
B|-----------------------------------------
G|-----------------------------------------
D|-----------------------------------------
A|-2--------------10-2------------8--------
E|-0-0-1b2r1-0--0-8--0-0-1b2r1-0--6--------


   E5               D#5
E|-----------------------------------------
B|-----------------------------------------
G|-----------------------------------------
D|------------------8----------------------
A|-2----------------6----------------------
E|-0-0-1b2r1-0-0-0-------------------------


   E5    F5   G5  G#5 G5  F5
E|-----------------------------------------
B|-----------------------------------------
G|-----------------------------------------
D|-----------------------------------------
A|-2-2-2-3---5----6---5---3----------------
E|-0-0-0-1-0-3-0--4-0-3-0-1----------------
   ↓ ↓ ↓ ↓ ↓ ↓ ↓  ↓ ↓ ↓ ↓ ↓

   E5               D#5
E|-----------------------------------------
B|-----------------------------------------
G|-----------------------------------------
D|------------------8----------------------
A|-2----------------6----------------------
E|-0-0-1b2r1-0-0-0-------------------------


   E5    F5   G5  G#5 G5  F5
E|-----------------------------------------
B|-----------------------------------------
G|-----------------------------------------
D|-----------------------------------------
A|-2-2-2-3---5----6---5---3----------------
E|-0-0-0-1-0-3-0--4-0-3-0-1----------------
   ↓ ↓ ↓ ↓ ↓ ↓ ↓  ↓ ↓ ↓ ↓ ↓


Primeira Parte: (Riff 1)
 E5
Can't you see I'm easily bothered by persistance?
One step from lashing out at you.
You want in to get under my skin and call yourself a friend.
                                        D#5
I've got more friends like you, what do I do?
Variação:

E|-----------------------------------------
B|-----------------------------------------
G|-----------------------------------------
D|-8-8-------------------------------------
A|-6-6-------------------------------------
E|-----------------------------------------


Segunda Parte:
D5               Bb5        B5    E5
   Is there no standard anymore?
What it takes, who I am, where I've been, belong.
D5               Bb5              B5  E5
   You can't be something you're not.
Be yourself, by yourself, stay away from me.
D5            Bb5
    A lesson learned in life,
G5                 F#5     F5
   known from the dawn of time.
Segunda Parte:

   D5  Bb5 B5
E|-----------------------------------------
B|-----------------------------------------
G|-----------------------------------------
D|-7--3---4--------------------------------
A|-5--1---2--------------------------------
E|----------0-1b2r1--0--0-1b2r1--0--0-1b2r1


E|-----------------------------------------
B|-----------------------------------------
G|-----------------------------------------
D|-----------------------------------------
A|-----------------------------------------
E|-0--0-1b2-0------------------------------


   D5  Bb5 B5  G5  F#5 F5
E|-----------------------------------------
B|-----------------------------------------
G|-----------------------------------------
D|-7---3---4-------------------------------
A|-5---1---2---5---4---3-------------------
E|-------------3---2---1-------------------


Refrão:
E5  C5   Bb5   D#5
   Re, spect, walk.
( E5  F5  G5  G#5  G5  F5 )
What did you say?
E5  C5   Bb5   D#5
   Re, spect, walk.
( E5  F5  G5  G#5  G5  F5 ) (2x)
Are you talking to me?

(Riff 2)

(Riff 1)
Variação:

E|-----------------------------------------
B|-----------------------------------------
G|-----------------------------------------
D|-8-8-------------------------------------
A|-6-6-------------------------------------
E|-----------------------------------------


(Primeira Parte - com variação na letra) (Riff 1)
 E5
Run your mouth when I'm not around, it's easy to achieve.
                                 D#5
You cry to weak friends that sympathize.
Can you hear the violins playing your song?
Those same friends tell me your every word.

(Segunda Parte)

(Refrão 2x)

( E5  F5  G5  G#5  G5  F5 ) (2x)
No way punk!
Solo:

E|-------------------------------------12------------
B|-15b--15b17~-12----12-------------------15p12------
G|-14b------------15----15p14p12h14h15---------------
D|---------------------------------------------------
A|---------------------------------------------------
E|---------------------------------------------------


E|----------------12----------------12h14b15---------
B|-------------------15-12---------------------------
G|-15p14p12h14h15----------15p14p12------------------
D|---------------------------------------------------
A|---------------------------------------------------
E|---------------------------------------------------


E|-12h14-----12-16----12-----------------------------
B|-------15b-------15----15h17-----------------------
G|---------------------------------------------------
D|---------------------------------------------------
A|---------------------------------------------------
E|---------------------------------------------------


E|-12h16p12----12h16p12h16p12----12------------------
B|----------15----------------15-----15p12h15p12-----
G|---------------------------------------------------
D|---------------------------------------------------
A|---------------------------------------------------
E|---------------------------------------------------


E|---------------------------------------------------
B|----12h15p12---------------------------------------
G|-15----------15p14p12----14----13~p12--------------
D|----------------------14----14--------14-12--------
A|---------------------------------------------------
E|---------------------------------------------------


E|--------------------------15--17-18-19b21~---------
B|---------------------------------------------------
G|-13~p12~------13~p12~-13b--------------------------
D|--------14-12--------------------------------------
A|---------------------------------------------------
E|---------------------------------------------------


E|-----------9h10p9p7--------------------------------
B|-5~-----------------7h8p7p5------------------------
G|-5~-------------------------6~--7b--7b-r5-5~-------
D|----7-5-7~-----------------------------------------
A|---------------------------------------------------
E|---------------------------------------------------

   T           T

E|---------------------------------------------------
B|---------------------------------------------------
G|-2/----2/----2/----2/14~---------------------------
D|---------------------------------------------------
A|---------------------------------------------------
E|---------------------------------------------------


E|---------------------------------------------------
B|-----10-----10------10-----10-----10---10----------
G|-8h9----9p8----9h10----9p8----8h9----9----9--------
D|---------------------------------------------------
A|---------------------------------------------------
E|---------------------------------------------------


E|---------------------------------------------------
B|-10/13~--------------------------------------------
G|---------------------------------------------------
D|---------------------------------------------------
A|---------------------------------------------------
E|---------------------------------------------------


E|-----10------11-------16-------------22----22------
B|-6/9----9/12----12/15----15/18-18/21----21----21---
G|---------------------------------------------------
D|---------------------------------------------------
A|---------------------------------------------------
E|---------------------------------------------------


E|-22b24-24r-----------------------------------------
B|-------24r-----------------------------------------
G|---------------------------------------------------
D|---------------------------------------------------
A|---------------------------------------------------
E|---------------------------------------------------


(Refrão 2x)

Parte Final:
E5
Walk on home boy!
Riff Final:

   E5
E|-----------------------------------------
B|-----------------------------------------
G|--------5\4\3----------------------------
D|--------4\3\2----------------------------
A|-2-2-2-----------------------------------
E|-0-0-0-----------------------------------

  • 1
  • 2
  • 3
  • 4
  • 5
  • 6
  • 7
  • 8
  • 9
  • 10
  • 11
  • 12
    Acordes para:
      Colaboração e revisão:
      • tarsiuslima
      • André Belotto

      0 comentários

        mostrar mais comentários

        Conseguiu tocar?

        35tocaram1ainda não

        Grave um vídeo tocando Walk e mande pra gente!

        00:00 / 00:00
        outros vídeos desta música
        repetirqualidadeautomática
        • automática
        Outro vídeos desta música
          Capítulos
          • Início - Vinheta Dia Mundial do Rock
          • Dicas iniciais - Afinação 1 tom abaixo
          • Tocando a música
          • Dicas iniciais - Pedais
          • Powerd Chords - Introdução e Primeira Parte
          • Tocando Introdução e Primeira Parte
          • Ensinando Introdução - Riff 1
          • Ensinando Introdução - Riff 2 (Parte 1 e 2)
          • Ensinando Introdução - Riff 2 (Parte 3)
          • Ensinando Primeira Parte
          • Powerd Chords - Segunda Parte e Refrão
          • Tocando Segunda Parte - Refrão
          • Ensinando Segunda Parte - Parte 1
          • Ensinando Segunda Parte - Parte 2
          • Ensinando Refrão - Riff 2
          • Dicas para repetição
          • Tocando Refrão - Final
          • Solo - Parte 1
          • Solo - Parte 2
          • Solo - Parte 3
          • Solo - Parte 4
          • Solo - Parte 5
          • Solo - Parte 6
          • Solo - Parte 7
          • Solo - Parte 8
          • Solo - Parte 9
          • Solo - Parte 10
          • Ensinando Riff Final
          • Ensinando Riff Final (Guitarra 2)
          • Encerramento
          00:00 / 00:00
          automática
          • automática
          Acordes para:violão e guitarra
          dificuldadeexibiçõescontribuições
          2 versões de Tab de baixoexibiçõescontribuições
          1 versão de Tab de bateriaexibiçõescontribuições
          1 versão de Guitar Proformatodownloadscontribuição
          fecharplay/pause subir/descer velocidade
            acordes
            fechar
            OK
            Feedback