Notificações Amigos pendentes

      Pantera

      Walk

      202.622 exibições
      Tom: A
      Intro:
      
      Riff 1 - 2x:
      
         E5
      E|-----------------------------------------
      B|-----------------------------------------
      G|-----------------------------------------
      D|-----------------------------------------
      A|-2---------------------------------------
      E|-0--0-1b2r1-0--0-1b2r1-0--0-1b2r1-0--0---
      
      
      E|-----------------------------------------
      B|-----------------------------------------
      G|-----------------------------------------
      D|-----------------------------------------
      A|-----------------------------------------
      E|-1b2r1-0-0--1b2r1-0-0-1b2r1-0-0-1b2r1----
      
      
      E|-----------------------------------------
      B|-----------------------------------------
      G|-----------------------------------------
      D|-----------------------------------------
      A|-----------------------------------------
      E|-/\-/\-----------------------------------
      
      
      Riff 2: E5  C5  Bb5  D#5  F5  G5  G#5  G5  F5
      
      
         E5             C5 E5           Bb5
      E|-----------------------------------------
      B|-----------------------------------------
      G|-----------------------------------------
      D|-----------------------------------------
      A|-2--------------10-2------------8--------
      E|-0-0-1b2r1-0--0-8--0-0-1b2r1-0--6--------
      
      
         E5               D#5
      E|-----------------------------------------
      B|-----------------------------------------
      G|-----------------------------------------
      D|------------------8----------------------
      A|-2----------------6----------------------
      E|-0-0-1b2r1-0-0-0-------------------------
      
      
         E5    F5   G5  G#5 G5  F5
      E|-----------------------------------------
      B|-----------------------------------------
      G|-----------------------------------------
      D|-----------------------------------------
      A|-2-2-2-3---5----6---5---3----------------
      E|-0-0-0-1-0-3-0--4-0-3-0-1----------------
         ↓ ↓ ↓ ↓ ↓ ↓ ↓  ↓ ↓ ↓ ↓ ↓
      
         E5               D#5
      E|-----------------------------------------
      B|-----------------------------------------
      G|-----------------------------------------
      D|------------------8----------------------
      A|-2----------------6----------------------
      E|-0-0-1b2r1-0-0-0-------------------------
      
      
         E5    F5   G5  G#5 G5  F5
      E|-----------------------------------------
      B|-----------------------------------------
      G|-----------------------------------------
      D|-----------------------------------------
      A|-2-2-2-3---5----6---5---3----------------
      E|-0-0-0-1-0-3-0--4-0-3-0-1----------------
         ↓ ↓ ↓ ↓ ↓ ↓ ↓  ↓ ↓ ↓ ↓ ↓
      
      
      Primeira Parte: (Riff 1)
       E5
      Can't you see I'm easily bothered by persistance?
      One step from lashing out at you.
      You want in to get under my skin and call yourself a friend.
                                              D#5
      I've got more friends like you, what do I do?
      Variação:
      
      E|-----------------------------------------
      B|-----------------------------------------
      G|-----------------------------------------
      D|-8-8-------------------------------------
      A|-6-6-------------------------------------
      E|-----------------------------------------
      
      
      Segunda Parte:
      D5               Bb5        B5    E5
         Is there no standard anymore?
      What it takes, who I am, where I've been, belong.
      D5               Bb5              B5  E5
         You can't be something you're not.
      Be yourself, by yourself, stay away from me.
      D5            Bb5
          A lesson learned in life,
      G5                 F#5     F5
         known from the dawn of time.
      Segunda Parte:
      
         D5  Bb5 B5
      E|-----------------------------------------
      B|-----------------------------------------
      G|-----------------------------------------
      D|-7--3---4--------------------------------
      A|-5--1---2--------------------------------
      E|----------0-1b2r1--0--0-1b2r1--0--0-1b2r1
      
      
      E|-----------------------------------------
      B|-----------------------------------------
      G|-----------------------------------------
      D|-----------------------------------------
      A|-----------------------------------------
      E|-0--0-1b2-0------------------------------
      
      
         D5  Bb5 B5  G5  F#5 F5
      E|-----------------------------------------
      B|-----------------------------------------
      G|-----------------------------------------
      D|-7---3---4-------------------------------
      A|-5---1---2---5---4---3-------------------
      E|-------------3---2---1-------------------
      
      
      Refrão:
      E5  C5   Bb5   D#5
         Re, spect, walk.
      ( E5  F5  G5  G#5  G5  F5 )
      What did you say?
      E5  C5   Bb5   D#5
         Re, spect, walk.
      ( E5  F5  G5  G#5  G5  F5 ) (2x)
      Are you talking to me?
      
      (Riff 2)
      
      (Riff 1)
      Variação:
      
      E|-----------------------------------------
      B|-----------------------------------------
      G|-----------------------------------------
      D|-8-8-------------------------------------
      A|-6-6-------------------------------------
      E|-----------------------------------------
      
      
      (Primeira Parte - com variação na letra) (Riff 1)
       E5
      Run your mouth when I'm not around, it's easy to achieve.
                                       D#5
      You cry to weak friends that sympathize.
      Can you hear the violins playing your song?
      Those same friends tell me your every word.
      
      (Segunda Parte)
      
      (Refrão 2x)
      
      ( E5  F5  G5  G#5  G5  F5 ) (2x)
      No way punk!
      Solo:
      
      E|-------------------------------------12------------
      B|-15b--15b17~-12----12-------------------15p12------
      G|-14b------------15----15p14p12h14h15---------------
      D|---------------------------------------------------
      A|---------------------------------------------------
      E|---------------------------------------------------
      
      
      E|----------------12----------------12h14b15---------
      B|-------------------15-12---------------------------
      G|-15p14p12h14h15----------15p14p12------------------
      D|---------------------------------------------------
      A|---------------------------------------------------
      E|---------------------------------------------------
      
      
      E|-12h14-----12-16----12-----------------------------
      B|-------15b-------15----15h17-----------------------
      G|---------------------------------------------------
      D|---------------------------------------------------
      A|---------------------------------------------------
      E|---------------------------------------------------
      
      
      E|-12h16p12----12h16p12h16p12----12------------------
      B|----------15----------------15-----15p12h15p12-----
      G|---------------------------------------------------
      D|---------------------------------------------------
      A|---------------------------------------------------
      E|---------------------------------------------------
      
      
      E|---------------------------------------------------
      B|----12h15p12---------------------------------------
      G|-15----------15p14p12----14----13~p12--------------
      D|----------------------14----14--------14-12--------
      A|---------------------------------------------------
      E|---------------------------------------------------
      
      
      E|--------------------------15--17-18-19b21~---------
      B|---------------------------------------------------
      G|-13~p12~------13~p12~-13b--------------------------
      D|--------14-12--------------------------------------
      A|---------------------------------------------------
      E|---------------------------------------------------
      
      
      E|-----------9h10p9p7--------------------------------
      B|-5~-----------------7h8p7p5------------------------
      G|-5~-------------------------6~--7b--7b-r5-5~-------
      D|----7-5-7~-----------------------------------------
      A|---------------------------------------------------
      E|---------------------------------------------------
      
         T           T
      
      E|---------------------------------------------------
      B|---------------------------------------------------
      G|-2/----2/----2/----2/14~---------------------------
      D|---------------------------------------------------
      A|---------------------------------------------------
      E|---------------------------------------------------
      
      
      E|---------------------------------------------------
      B|-----10-----10------10-----10-----10---10----------
      G|-8h9----9p8----9h10----9p8----8h9----9----9--------
      D|---------------------------------------------------
      A|---------------------------------------------------
      E|---------------------------------------------------
      
      
      E|---------------------------------------------------
      B|-10/13~--------------------------------------------
      G|---------------------------------------------------
      D|---------------------------------------------------
      A|---------------------------------------------------
      E|---------------------------------------------------
      
      
      E|-----10------11-------16-------------22----22------
      B|-6/9----9/12----12/15----15/18-18/21----21----21---
      G|---------------------------------------------------
      D|---------------------------------------------------
      A|---------------------------------------------------
      E|---------------------------------------------------
      
      
      E|-22b24-24r-----------------------------------------
      B|-------24r-----------------------------------------
      G|---------------------------------------------------
      D|---------------------------------------------------
      A|---------------------------------------------------
      E|---------------------------------------------------
      
      
      (Refrão 2x)
      
      Parte Final:
      E5
      Walk on home boy!
      Riff Final:
      
         E5
      E|-----------------------------------------
      B|-----------------------------------------
      G|--------5\4\3----------------------------
      D|--------4\3\2----------------------------
      A|-2-2-2-----------------------------------
      E|-0-0-0-----------------------------------
      
      

      Comentários 45

      140 .
      • Moacir Moacir: Em 30/11/2013 17:34

        O proximo q falar q o avenged e banda. Poser ou q eu sou poser e um merda filha da puta

        • Eduardo Eduardo: Em 09/12/2013 19:12

          Avenged não é uma banda poser cara só é uma banda de merda apenas isso e se vc gosta de avenged só esta provando que gosta de uma bosta

        • Lucas Lucas: Em 19/02/2016 21:17

          vai se ferrar mano não so a a7x que tocou walk disturbed tbm tocou e se vc n gosta fica quieto e n fica faalando melda

      • Ivan Ivan: Em 08/09/2013 12:59

        boeno

      • andré andré: Em 25/06/2013 00:44

        igual a minha guitarra!!

      • Raul Raul: Em 25/05/2013 12:57

        kkkkk, essa poha do Tarsius toca pakas !!!!!

      • f.y.o.k f.y.o.k: Em 05/01/2013 00:20

        para mim o A7x não é metal.. mais um rockzinho.. ja o Pantera é foda e pronto! não precisa discutir

      • marcusguitarage marcusguitarage: Em 23/10/2012 18:54

        mano ta falando q é 1 tom a baixo, mais a tu guitarra ta a 1tom e meio -,-

      • Trigga Trigga: Em 18/10/2012 06:02

        Em show do A7x não tem Mosh Pit, tem CIRANDA.

      140 cancelar

      conseguiu tocar?

      • •••
      Leonardo M Borges376 visualizações
        ver covers de outras músicas »
        0:00 / 0:00
        2 versões de violão dificuldade exibições contribuição e correção
        2 versões de guitarra dificuldade exibições contribuição e correção
        2 versões de cavaco dificuldade exibições contribuição e correção
        2 versões de teclado dificuldade exibições contribuição e correção
        2 versões de baixo exibições contribuição e correção
        1 versão de bateria exibições contribuição e correção
        1 versão de Guitar Proformatodownloadscontribuição
        play/pausefechar subir/descer velocidade
        6ª corda E5ª corda A4ª corda D3ª corda G2ª corda B1ª corda E
          acordes
          publicidade
          fechar
          ok