Cifra Club

Aprenda

Blood Brothers

Papa Roach

Cifra: Principal (violão e guitarra)
Quer fazer aulas de música com a gente? Responda essas perguntas
e nos ajude nesse projeto! →
tom: C
Notação da tablatura:
p.m - palm mute
h - hammer on
p - pull off
/ - slide p/baixo
\ - slide p/cima
^ - bend
Onde estiver escrito (baixo)*, é porque a nota tocada é tocada pelo Baixo.


Riff da Intro:
e|--------------------------------------|-------------------------------------|
B|--------------------------------------|-------------------------------------|
G|-7-7-10-7-9------7-7-10-7-7-------7---|-7-7-10-7-9------7-7-10-7------------|
D|------------10-7------------10-10--10-|------------10-7----------10-7-7-8-7-|
A|--------------------------------------|-------------------------------------|
E|--------------------------------------|-------------------------------------|
  (p.m)           (P.m)                  (p.m)           (p.m)  

e|--------------------------------------|-------------------------------------|
B|--------------------------------------|-------------------------------------|
G|-7-7-10-7-9------7-7-10-7-7-------7---|-7-7-10-7-9------7-7-10-7------------|
D|------------10-7------------10-10--10-|------------10-7----------10-7-7-8-7-|
A|--------------------------------------|-------------------------------------|
E|--------------------------------------|-------------------------------------|
  (p.m)           (p.m)                  (p.m)           (p.m)

e|--------------------------------------|-------------------------------------|
B|--------------------------------------|-------------------------------------|
G|-7-7-10-7-9------7-7-10-7-7-------7---|-7-7-10-7-9------7-7-10-7------------|
D|------------10-7------------10-10--10-|------------10-7----------10-7-7-8-7-|
A|--------------------------------------|-------------------------------------|
E|--------------------------------------|-------------------------------------|
  (p.m)           (p.m)                  (p.m)           (p.m) 

e|--------------------------------------|-------------------------------------|
B|--------------------------------------|-------------------------------------|
G|-7-7-10-7-9------7-7-10-7-7-------7---|-7-7-10-7-9------7-7-10-7------------|
D|------------10-7------------10-10--10-|------------10-7----------10-7-7-8-7-|
A|--------------------------------------|-------------------------------------|
E|--------------------------------------|-------------------------------------|
  (p.m)           (p.m)                  (p.m)           (p.m)

e|--------------------------------------|-------------------------------------|
B|--------------------------------------|-------------------------------------|
G|-7-7-10-7-9------7-7-10-7-7-------7---|-7-7-10-7-9------7-7-10-7------------|
D|------------10-7------------10-10--10-|------------10-7----------10-7-7-8-7-|
A|--------------------------------------|-------------------------------------|
E|--------------------------------------|-------------------------------------|
  (p.m)           (p.m)                  (p.m)           (p.m) 

e|---------------------------------|---------------------------------|
B|---------------------------------|---------------------------------|
G|---------------------------------|---------------------------------|
D|---------------------------------|---------------------------------|
A|-5-5-8-5-7-----5-5-8-5-5---------|-5-5-8-5-7-----5-5-8-5-5-8-8-8-8-|
E|-----------8-5-----------8-8-8-8-|-----------8-5-------------------|
  (p.m)         (p.m)               (p.m)         (p.m)       

e|---------------------------------|---------------------------------|
B|---------------------------------|---------------------------------|
G|---------------------------------|---------------------------------|
D|---------------------------------|---------------------------------|
A|-5-5-8-5-7-----5-5-8-5-5---------|-5-5-8-5-7-----5-5-8-5-5-8-8-8-8-|
E|-----------8-5-----------8-8-8-8-|-----------8-5-------------------|
  (p.m)         (p.m)               (p.m)         (p.m) 


Entra o vocal:
e|-----------------------------|
B|-----------------------------|
G|-----------------------------|
D|-----------------------------|
A|-5-5-8-5-7-----8-5-5-7-------|
E|-----------8-5---------8-5-5-|
L:Watch your back because the next man is coming

e|-----------------------------|
B|-----------------------------|
G|-----------------------------|
D|-----------------------------|
A|-5-5-8-5-7-----8-5-5-7-------|
E|-----------8-5---------8-5-5-|
L:And you don't know if the next man has done it

e|-----------------------------|
B|-----------------------------|
G|-----------------------------|
D|-----------------------------|
A|-5-5-8-5-7-----8-5-5-7-------|
E|-----------8-5---------8-5-5-|
L:Survival of the fit is what it is

e|-----------------------------|
B|-----------------------------|
G|-----------------------------|
D|-----------------------------|
A|-5-5-8-5-7-----8-5-5-7-------|
E|-----------8-5---------8-5-5-|
L:I got your back you got my back and that's the biz

e|-----------------------------|
B|-----------------------------|
G|-----------------------------|
D|-----------------------------|
A|-5-5-8-5-7-----8-5-5-7-------|
E|-----------8-5---------8-5-5-|
L:Blood is rushing through my veins I got the power

e|-----------------------------|
B|-----------------------------|
G|-----------------------------|
D|-----------------------------|
A|-5-5-8-5-7-----8-5-5-7-------|
E|-----------8-5---------8-5-5-|
L:Drain all the energy and with my strength I will devour

e|-----------------------------|
B|-----------------------------|
G|-----------------------------|
D|-----------------------------|
A|-5-5-8-5-7-----8-5-5-7-------|
E|-----------8-5---------8-5-5-|
L:Chilly thoughts is running through my head

e|-----------------------------|
B|-----------------------------|
G|-----------------------------|
D|-----------------------------|
A|-5-5-8-5-7-----8-5-5-7-------|
E|-----------8-5---------8-5-5-|
L:That's when I realized I'm glad I'm not dead


e|-----------------------------|
B|-----------------------------|
G|-----------------------------|
D|-7-7-------------------7-7-7-|
A|-5-5-------------------5-5-5-|
E|-----------------------------|
L:Corruption and abuse

e|-----------------------------|
B|-----------------------------|
G|-----------------------------|
D|-7-7-------------------7-7-7-|
A|-5-5-------------------5-5-5-|
E|-----------------------------|
L:The salesmen of our blood

e|-----------------------------|
B|-----------------------------|
G|-----------------------------|
D|-7-7-------------------7-7-7-|
A|-5-5-------------------5-5-5-|
E|-----------------------------|
L:For the police strengthen

e|-----------------------------|
B|-----------------------------|
G|-----------------------------|
D|-7-7-------------------7-7-7-|
A|-5-5-------------------5-5-5-|
E|-----------------------------|
L:Existence in the dark

e|-----------------------------|
B|-----------------------------|
G|-----------------------------|
D|-----------------------------|
A|-5-5-8-5-7-----5-5-8-5-5--10-|
E|-----------8-5-------------8-|
L:It's in our nature to destroy ourselves

e|-----------------------------|
B|-----------------------------|
G|-----------------------------|
D|--------------------------10-|
A|-5-5-8-5-7-----5-5-8-5-5---8-|
E|-----------8-5---------------|
L:It's in our nature to kill ourselves

e|-----------------------------|
B|-----------------------------|
G|-----------------------------|
D|-----------------------------|
A|-5-5-8-5-7-----5-5-8-5-5--10-|
E|-----------8-5-------------8-|
L:It's in our nature to kill each other

e|-------------------------------------------|
B|-------------------------------------------|
G|-------------------------------------------|
D|--------------------------10-10-10-8-------|
A|-5-5-8-5-7-----5-5-8-5-5---8--8--8-8-deixe-|
E|-----------8-5---------------------6--soar-|
L:It's in our nature to KILL KILL KILL

e|---------------------------------------|-------------------------------------|
B|---------------------------------------|-------------------------------------|
G|-7-7-10-7-9------7-7-10-7-7-------7----|-7-7-10-7-9------7-7-10-7------------|
D|------------10-7------------10-10---10-|------------10-7----------10-7-7-8-7-|
A|---------------------------------------|-------------------------------------|
E|---------------------------------------|-------------------------------------|
  (p.m)           (p.m)                   (p.m)           (p.m)

e|-----------------------------|
B|-----------------------------|
G|-----------------------------|
D|-----------------------------|
A|-5-5-8-5-7-----8-5-5-7-------|
E|-----------8-5---------8-5-5-|
L:It was a dream and then it hit me

e|-----------------------------|
B|-----------------------------|
G|-----------------------------|
D|-----------------------------|
A|-5-5-8-5-7-----8-5-5-7-------|
E|-----------8-5---------8-5-5-|
L:Reality struck, and now my life is all shifty

e|-----------------------------|
B|-----------------------------|
G|-----------------------------|
D|-----------------------------|
A|-5-5-8-5-7-----8-5-5-7-------|
E|-----------8-5---------8-5-5-|
L:And it all moves fast

e|-----------------------------|
B|-----------------------------|
G|-----------------------------|
D|-----------------------------|
A|-5-5-8-5-7-----8-5-5-7-------|
E|-----------8-5---------8-5-5-|
L:Props to the prop 50, we all stand strong

e|-----------------------------|
B|-----------------------------|
G|-----------------------------|
D|-----------------------------|
A|-5-5-8-5-7-----8-5-5-7-------|
E|-----------8-5---------8-5-5-|
L:And respect to my family and times of insanity

e|-----------------------------|
B|-----------------------------|
G|-----------------------------|
D|-----------------------------|
A|-5-5-8-5-7-----8-5-5-7-------|
E|-----------8-5---------8-5-5-|
L:In the worlds of fulfility

e|-----------------------------|
B|-----------------------------|
G|-----------------------------|
D|-----------------------------|
A|-5-5-8-5-7-----8-5-5-7-------|
E|-----------8-5---------8-5-5-|
L:I describe all dicks forcing on family

e|-----------------------------|
B|-----------------------------|
G|-----------------------------|
D|-----------------------------|
A|-5-5-8-5-7-----8-5-5-7-------|
E|-----------8-5---------8-5-5-|
L:Blood brothers keep it real to the end

e|-----------------------------|
B|-----------------------------|
G|-----------------------------|
D|-----------------------------|
A|-5-5-8-5-7-----8-5-5-7-------|
E|-----------8-5---------8-5-5-|
L:Deeper than the flux you think, not a trend

e|-----------------------------|
B|-----------------------------|
G|-----------------------------|
D|-7-7-------------------7-7-7-|
A|-5-5-------------------5-5-5-|
E|-----------------------------|
L:Corruption and abuse

e|-----------------------------|
B|-----------------------------|
G|-----------------------------|
D|-7-7-------------------7-7-7-|
A|-5-5-------------------5-5-5-|
E|-----------------------------|
L:The salesmen of our blood

e|-----------------------------|
B|-----------------------------|
G|-----------------------------|
D|-7-7-------------------7-7-7-|
A|-5-5-------------------5-5-5-|
E|-----------------------------|
L:For the police strengthen

e|-----------------------------|
B|-----------------------------|
G|-----------------------------|
D|-7-7-------------------7-7-7-|
A|-5-5-------------------5-5-5-|
E|-----------------------------|
L:Existence in the dark

e|-----------------------------|
B|-----------------------------|
G|-----------------------------|
D|-----------------------------|
A|-5-5-8-5-7-----5-5-8-5-5--10-|
E|-----------8-5-------------8-|
L:It's in our nature to destroy ourselves

e|-----------------------------|
B|-----------------------------|
G|-----------------------------|
D|--------------------------10-|
A|-5-5-8-5-7-----5-5-8-5-5---8-|
E|-----------8-5---------------|
L:It's in our nature to kill ourselves

e|-----------------------------|
B|-----------------------------|
G|-----------------------------|
D|-----------------------------|
A|-5-5-8-5-7-----5-5-8-5-5--10-|
E|-----------8-5-------------8-|
L:It's in our nature to kill each other

e|------------------------------------|
B|------------------------------------|
G|------------------------------------|
D|--------------------------10-10-10--|
A|-5-5-8-5-7-----5-5-8-5-5---8--8--8--|
E|-----------8-5----------------------|
L:It's in our nature to KILL KILL KILL

e|-----------------------------|
B|-----------------------------|
G|-----------------------------|
D|-----------------------------|
A|-5-5-8-5-7-----5-5-8-5-5--10-|
E|-----------8-5-------------8-|
L:It's in our nature to destroy ourselves

e|-----------------------------|
B|-----------------------------|
G|-----------------------------|
D|--------------------------10-|
A|-5-5-8-5-7-----5-5-8-5-5---8-|
E|-----------8-5---------------|
L:It's in our nature to kill ourselves

e|-----------------------------|
B|-----------------------------|
G|-----------------------------|
D|-----------------------------|
A|-5-5-8-5-7-----5-5-8-5-5--10-|
E|-----------8-5-------------8-|
L:It's in our nature to kill each other

e|-------------------------------------|
B|-------------------------------------|
G|-------------------------------------|
D|--------------------------10-10-10-8---7/8\7/8-7/8\7\8-|
A|-5-5-8-5-7-----5-5-8-5-5---8--8--8-8---7/8\7/8-7/8\7\8-|
E|-----------8-5---------------------6---5/6\5/6-5/6\5\6-|
L:It's in our nature to KILL KILL KILL                  I get it down

e|----------------|----------------------------|--------------------|
B|----------------|----------------------------|--------------------|
G|----------------|-7-7-7--------7-7-7---------|-7-7-7--------7-7-7-|
D|----------------|----------------------------|--------------------|
A|---5-5-5-8--5---|-5-5-5--------5-5-5---------|-5-5-5--------5-5-5-|
E|-8------------8-|------(baixo)*-----(baixo)*-|------(baixo)*------|

e|-----------------------------|
B|-----------------------------|
G|-----------------------------|
D|-7-7-------------------7-7-7-|
A|-5-5-------------------5-5-5-|
E|-----------------------------|
L:Corruption and abuse

e|-----------------------------|
B|-----------------------------|
G|-----------------------------|
D|-7-7-------------------7-7-7-|
A|-5-5-------------------5-5-5-|
E|-----------------------------|
L:The salesmen of our blood

e|-----------------------------|
B|-----------------------------|
G|-----------------------------|
D|-----------------------------|
A|-----5---------5-----------5-|
E|-8-5-------8-5---------8-5---|
L:For the police strengthen

e|-----------------------------|
B|-----------------------------|
G|-----------------------------|
D|-----------------------------|
A|-----5---------5-------------|
E|-8-5-------8-5---------------|
L:Existence in the dark

e|-----------------------------|
B|-----------------------------|
G|-----------------------------|
D|-----------------------------|
A|-5-5-8-5-7-----5-5-8-5-5--10-|
E|-----------8-5-------------8-|
L:It's in our nature to destroy ourselves

e|-----------------------------|
B|-----------------------------|
G|-----------------------------|
D|--------------------------10-|
A|-5-5-8-5-7-----5-5-8-5-5---8-|
E|-----------8-5---------------|
L:It's in our nature to kill ourselves

e|-----------------------------|
B|-----------------------------|
G|-----------------------------|
D|-----------------------------|
A|-5-5-8-5-7-----5-5-8-5-5--10-|
E|-----------8-5-------------8-|
L:It's in our nature to kill each other

                            (----1/2tom----)
e|-------------------------|----------------|
B|-------------------------|----------------|
G|-------------------------|-9^-9^-9^-9^-9^-|
D|-------------------------|----------------|
A|-5-5-8-5-7-----5-5-8-5-5-|----------------|
E|-----------8-5-----------|----------------|
L:It's in our nature to KILL KILL KILL KILL KILL

  (---1/2tom-----) (-----1/2tom---) (----1/2tom----) (--1/2tom---)
E|----------------|----------------|----------------|-------------|
B|----------------|----------------|----------------|-10^-10^-10^-|
G|-9^-9^-9^-9^-9^-|-9^-9^-9^-9^-9^-|-9^-9^-9^-9^-9^-|-------------|
D|----------------|----------------|----------------|-------------|
A|----------------|----------------|----------------|-------------|
E|----------------|----------------|----------------|-------------|
L:KILL KILL KILL KILL KILL (Repetir +3x)

e|-----------------------------|
B|-----------------------------|
G|-----------------------------|
D|-7-7-------------------7-7-7-|
A|-5-5-------------------5-5-5-|
E|-----------------------------|
L:It's in our nature to destroy ourselves

e|-----------------------------|
B|-----------------------------|
G|-----------------------------|
D|-7-7-------------------7-7-7-|
A|-5-5-------------------5-5-5-|
E|-----------------------------|
L:It's in our nature to kill ourselves

e|-----------------------------|
B|-----------------------------|
G|-----------------------------|
D|-7-7-------------------7-7-7-|
A|-5-5-------------------5-5-5-|
E|-----------------------------|
L:It's in our nature to kill each other

e|-----------------------------|
B|-----------------------------|
G|-----------------------------|
D|-7-7-------------------7-7-7-|
A|-5-5-------------------5-5-5-|
E|-----------------------------|
L:It's in our nature to kill
Composição de Papa Roach
Colaboração e revisão:
  • Marcos Franco
49.293 exibições
    • ½ Tom
    • A
    • Bb
    • B
    • C
    • Db
    • D
    • Eb
    • E
    • F
    • F#
    • G
    • Ab
  • Adicionar à lista

    0 comentários

    Ver todos os comentários
    00:00 / 00:00
    Outros vídeos desta música
    Repetir Qualidade Automático
    Outros vídeos desta música
    00:00 / 00:00
    Automático

    Cifra Club Pro

    Aproveite o Cifra Club com benefícios exclusivos e sem anúncios
    Cifra Club Pro
    Aproveite o Cifra Club com benefícios exclusivos e sem anúncios
    OK