Enviar cifraEntrar

Hallelujah

Paramore

Cifra: Principal
exibições 74.266
Tom: B
Afinação: D A D G B E

Dicas:
Ouça a música e preste bastante atenção nas guitarras.
A guitarra solo quando não faz o solo da introdução, faz as notas da guitarra base, só que nas formas oitavadas.


E|-777--999--111111--141414--0-0-0---------|
B|-000--000--0-0-0---0-0-0---111111--------|
G|-----------------------------------------|
D|-----------------------------------------|
A|-----------------------------------------|
D|-----------------------------------------|


Verso 1:

F#5    B5                          G#5       B5
  Somehow everything's gonna fall right in      to place
B5                                    G#5       B5
  if we only had a way to make it all    fall faster everyday
B5                       G#5        B5
  if only time flew like    a dove
B5                     G#5               B5
  we gotta make it fly faster than I'm falling in love


E|-777--999--111111--141414--0-0-0---------|
B|-000--000--0-0-0---0-0-0---111111--------|
G|-----------------------------------------|
D|-----------------------------------------|
A|-----------------------------------------|
D|-----------------------------------------|


Refrão:

B5                          G#5  E5
  This time we're not givin up
B5                          G#5  E5
  let's make it last forever
          F#5  B5      G#5 E5
  screamin "hallelujah"
B5                       G#5 E5
  we'll make it last forever

Verso 2:

B5                                   G#5 B5
  holding onto patience, wearing thin
F#5        B5                            G5  B5
  I can't force these eyes to see the end
F#  B5                     G#5       B5
      if only time flew like   a dove
F#5  B5                      G#5           B5
      we could watch it fly    and just keep lookin on


E|-777--999--111111--141414--0-0-0---------|
B|-000--000--0-0-0---0-0-0---111111--------|
G|-----------------------------------------|
D|-----------------------------------------|
A|-----------------------------------------|
D|-----------------------------------------|


Refrão:

B5                          G#5  E5
  This time we're not givin up
B5                          G#5  E5
  let's make it last forever
          F#5  B5      G#5 E5
  screamin "hallelujah"
B5                       G#5 E5
  we'll make it last forever
Ponte:

          D#5 E5 B5 G#5      D#5 E5 F#5
and we've got time      on our   hands
             D#5   E           G#     F#         B/D#
and we've got    got nothing but time on our hands
   G#5          F#5               D#5
got nothing but, got nothing but
   E5           G#5   B5            D#5 E5  F#5
got nothing but time on our hands

Solo

D#5 E5  G#5  B5  G#5  A5


E|-777--999--111111--141414--0-0-0---------|
B|-000--000--0-0-0---0-0-0---111111--------|
G|-----------------------------------------|
D|-----------------------------------------|
A|-----------------------------------------|
D|-----------------------------------------|



B5                           G#5  E5
  this time we're not givin up
  B5                         G#5   E5
oh, let's make it last forever
         F#5   B5     G#5  E5
screaming "hallelujah" (Hallelujah)
F#5  B5      G#5 E5
  "hallelujah"


F#5  B5
  • 1
  • 2
  • 3
  • 4
  • 5
  • 6
  • 7
  • 8
  • 9
  • 10
  • 11
  • 12
    Acordes para:
      Composição: Hayley WilliamsColaboração e revisão:
      • evie pepper x))~
      • guilherme

      0 comentários

        mostrar mais comentários

        Conseguiu tocar?

        4tocaram1ainda não

        Grave um vídeo tocando Hallelujah e mande pra gente!

        00:00 / 00:00
        outros vídeos desta música
        repetirqualidadeautomática
        • automática
        Outro vídeos desta música
          00:00 / 00:00
          automática
          • automática
          Acordes para:violão e guitarra
          dificuldadeexibiçõescontribuições
          2 versões de Tab de baixoexibiçõescontribuições
          1 versão de Guitar Proformatodownloadscontribuição
          fecharplay/pause subir/descer velocidade
            acordes
            fechar
            OK
            Feedback