Cifra Club

Hate To See Your Heart Break

Paramore

Cifra: Principal (violão e guitarra)
tom: F (forma dos acordes no tom de C) Capotraste na 5ª casa
Tom: F (forma dos acordes no tom de C)  Capotraste na 5ª casa

C              Am
There is not a single word
        C
In the whole world
              Am
That could describe the hurt
               F
The dullest knife just sawing back and forth
            G
Ripping through the softest skin there ever was
        F
How were you to know?
        G
How were you to know?

  C                Am
And I, I hate to see your heart break
             F
I hate to see your eyes get darker as they close
  G
But I've been there before

  C                Am
And I, I hate to see your heart break
             F
I hate to see your eyes get darker as they close
  G
But I've been there before

C           Am
Love happens all the time
            C
To people who aren't kind
           Am
And heroes who are blind
           F
Expecting perfect scripted movie scenes
           G
Who wants an awkward silence mystery?
        F
How were you to know?
        G
How were you to know?

  C                Am
And I, I hate to see your heart break
             F
I hate to see your eyes get darker as they close
  G
But I've been there before

  C                Am
And I, I hate to see your heart break
             F
I hate to see your eyes get darker as they close
  G                        Am
But I've been there before


Am          C                  G     Am
For all the air that's in your lungs
Am          C              G
For all the joy that is to come

                 F
For all the things that you're alive to feel
              G
Just let the pain remind you hearts can heal
        F
How were you to know?
        G
How were you to know?

  C                Am
And I, I hate to see your heart break
             F
I hate to see your eyes get darker as they close
  G
But I've been there before
  C                Am
And I, I hate to see your heart break
             F
I hate to see your eyes get darker as they close
  G
But I've been there before


[Solo] C Am F G

 [3x]

E|-------8----------------------8----------------------------12------------|
B|---8-10-10-10-10-8-10-8---8-10-10-10-10-8-10-8---------10-----10-10-10---|
G|-----------------------10----------------------10-10/12------------------|
D|-------------------------------------------------------------------------|
A|-------------------------------------------------------------------------|
E|-------------------------------------------------------------------------|

E|----------------------12---------------------------|
B|-----10------------10----10-10/13-13-13/11-11-11---|
G|--12----12-10-12-----------------------------------|
D|---------------------------------------------------|
A|---------------------------------------------------|
E|---------------------------------------------------|

( C Am F G C )

E|-------8----------------------8----------------------------12------------|
B|---8-10-10-10-10-8-10-8---8-10-10-10-10-8-10-8---------10-----10-10-10---|
G|-----------------------10----------------------10-10/12------------------|
D|-------------------------------------------------------------------------|
A|-------------------------------------------------------------------------|
E|-------------------------------------------------------------------------|

E|----------------------12-------------------------------|
B|-----10------------10----10-10/13-13-13/11-11-11--10---|
G|--12----12-10-12---------------------------------------|
D|-------------------------------------------------------|
A|-------------------------------------------------------|
E|-------------------------------------------------------|
00:00 / 00:00
Outros vídeos desta música
Repetir
Outros vídeos desta música
Composição de Hayley Williams / Taylor York
Colaboração e revisão:
41.458 exibições
    • ½ Tom
    • A
    • Bb
    • B
    • C
    • Db
    • D
    • Eb
    • E
    • F
    • F#
    • G
    • Ab
  • Adicionar à lista

    0 comentários

    Ver todos os comentários

    Conseguiu tocar?

    33 Tocaram 1 Ainda não

    Grave um vídeo tocando Hate To See Your Heart Break e nos envie!

    Entre para oCifra Club PRO

    Tenha acesso a benefícios exclusivos no App e no Site

    • Chega de anúncios

    • Prioridade de compra em lançamentos

    • Mais recursos no app do Afinador

    • Atendimento Prioritário

    • Descontos nos produtos Cifra Club

    • Ajude a produzir mais conteúdo

    00:00 / 00:00

    Cifra Club Pro

    Aproveite o Cifra Club com benefícios exclusivos e sem anúncios
    Cifra Club Pro
    Aproveite o Cifra Club com benefícios exclusivos e sem anúncios
    OK