Enviar cifraEntrar

Ignorance

Paramore

Cifra: Principal
exibições 169.254
Tom: D
Introdução: B5  D  B5  D
            G  D5  G  (Riff 1)
            B5  D  B5  D
            G  D5  G  (Riff 1)

(Guitarra 1)


   B5              D
E|------------------------------------------|
B|------------------------------------------|
G|-4-4-x-4-4-x-4-x-7-7-x-7-7-x-7-x----------|
D|-4-4-x-4-4-x-4-x-4-4-x-4-4-x-4-x----------|
A|-2-2-x-2-2-x-2-x-5-5-x-5-5-x-5-x----------|
E|------------------------------------------|


   B5              D
E|------------------------------------------|
B|------------------------------------------|
G|-4-4-x-4-4-x-4-x-7-7-x-7-7-x-7-x----------|
D|-4-4-x-4-4-x-4-x-4-4-x-4-4-x-4-x----------|
A|-2-2-x-2-2-x-2-x-5-5-x-5-5-x-5-x----------|
E|------------------------------------------|


   G               D5
E|------------------------------------------|
B|------------------------------------------|
G|-4-4---4-4---4---7-7-x-7-7-x-7-x----------|
D|-5-5-x-5-5-x-5-x-----x-----x---x----------|
A|-5-5-x-5-5-x-5-x-5-5-x-5-5-x-5-x----------|
E|-3-3-x-3-3-x-3-x--------------------------|


   G              (Riff 1)
E|------------------------------------------|
B|------------------------------------------|
G|-4-4---4-4---4---7-7-6-6-9-11-------------|
D|-5-5-x-5-5-x-5-x--------------------------|
A|-5-5-x-5-5-x-5-x-5-5-4-4-7--9-------------|
E|-3-3-x-3-3-x-3-x--------------------------|


(Guitarra 2)


E|-----------------------------------------------------|
B|-----------------------------------------------------|
G|-7-7-x-7-7-x-7-x-11-11-x-11-11-x-11-x----------------|
D|-----------------------------------------------------|
A|-----------------------------------------------------|
E|-7-7-x-7-7-x-7-x-10-10-x-10-10-x-10-x----------------|


E|-----------------------------------------------------|
B|-----------------------------------------------------|
G|-7-7-x-7-7-x-7-x-11-11-x-11-11-x-11-x----------------|
D|-----------------------------------------------------|
A|-----------------------------------------------------|
E|-7-7-x-7-7-x-7-x-10-10-x-10-10-x-10-x----------------|


E|-----------------------------------------------------|
B|-----------------------------------------------------|
G|-12-12-x-12-12-x-12-x-11-11-x-11-11-x-11-x-----------|
D|-----------------------------------------------------|
A|-----------------------------------------------------|
E|-12-12-x-12-12-x-12-x-10-10-x-10-10-x-10-x-----------|


E|-----------------------------------------------------|
B|-----------------------------------------------------|
G|-12-12-x-12-12-x-12-x-11-11-9-9----------------------|
D|--------------------------------12-11\---------------|
A|-----------------------------------------------------|
E|-12-12-x-12-12-x-12-x--------------------------------|



Primeira Parte:

  P.M. .   . . .   . . .   . . .

E|------------------------------------------|
B|------------------------------------------|
G|------------------------------------------|
D|-----9-----9---------9-----9--------------|
A|---9-----9---9-----9-----9---9------------|
E|-7---------------7------------------------|


  P.M. .   . . .   . . .   . . .

E|------------------------------------------|
B|------------------------------------------|
G|------------------------------------------|
D|-----9-----9---------9-----9--------------|
A|---9-----9---9-----9-----9---9------------|
E|-7---------------7------------------------|


  P.M . .    . .  .   .  . .    . .  .

E|------------------------------------------|
B|------------------------------------------|
G|------------------------------------------|
D|------9------9-----------9------9---------|
A|---10-----10---10-----10-----10---10------|
E|-0------------------0---------------------|


  P.M. .   . . .   . . .   . . .

E|------------------------------------------|
B|------------------------------------------|
G|------------------------------------------|
D|-----7-----7---------7-----7--------------|
A|---5-----5---5-----4-----4---4------------|
E|-3---------------3------------------------|


B5
   If I'm a bad person

You don't like me

Well, I guess I'll make my own way
Em
   It's a circle, a mean cycle
G5(9)               
     G5-(9)

      I can't excite you anymore

  P.M. . . . . . . . . . . . . . .

E|------------------------------------------|
B|------------------------------------------|
G|------------------------------------------|
D|-----9---9-----------9---9----------------|
A|---9---9---9---9---9---9---9---9----------|
E|-7-----------7---7-----------7------------|


  P.M. . . . . . . . . . . . . . .

E|------------------------------------------|
B|------------------------------------------|
G|------------------------------------------|
D|-----9---9-----------9---9----------------|
A|---9---9---9---9---9---9---9---9----------|
E|-7-----------7---7-----------7------------|


  P.M . .  . .  . .  . .  . .  . .  . .  .

E|------------------------------------------|
B|------------------------------------------|
G|------------------------------------------|
D|------9----9--------------9----9----------|
A|---10---10---10---10---10---10---10---10--|
E|-0--------------0----0--------------0-----|


  P.M. . . . . . . . . . . . . . .

E|------------------------------------------|
B|------------------------------------------|
G|------------------------------------------|
D|-----7---7-----------7---7----------------|
A|---5---5---5---5---4---4---4---4----------|
E|-3-----------3---3-----------3------------|


B5
   Where's your gavel? Your jury?

What's my offense this time?
Em
   You're not a judge

But if you're gonna judge me
G5(9)                   
     G5-(9)

      Well, sentence me to another life


Pré-Refrão:

(Guitarra 1)

  P.M . .    .          .  . .    .

E|------------------------------------------|
B|------------------------------------------|
G|------------------------------------------|
D|--------9-----9--------------9-----9------|
A|----------------9-9-9----------------9-9-9|
E|-7--7-7----7----------7--7-7----7---------|


  P.M . .    .          .  . .    .

E|------------------------------------------|
B|------------------------------------------|
G|------------------------------------------|
D|--------9-----9--------------9-----9------|
A|----------------9-9-9----------------9-9-9|
E|-7--7-7----7----------7--7-7----7---------|


  P.M . .     .          

E|------------------------------------------|
B|------------------------------------------|
G|------------------------------------------|
D|--------9------9--------------------------|
A|-----------10----10-10-10-----------------|
E|-0--0-0-----------------------------------|


  P.M . .     . 

E|------------------------------------------|
B|------------------------------------------|
G|------------------------------------------|
D|--------9------9--------------------------|
A|-----------10----10-10-10-----------------|
E|-0--0-0-----------------------------------|


  P.M . .    .          .  . .    .

E|------------------------------------------|
B|------------------------------------------|
G|------------------------------------------|
D|--------7-----7--------------7-----7------|
A|-----------5----5-5-5-----------4----4-4--|
E|-3--3-3---------------3--3-3--------------|


B5
   Don't wanna hear your sad songs

I don't wanna feel your pain

When you swear it's all my fault

'Cause you know
               Em
We're not the same

We're not the same
     G5(9) 
     G5-(9)

Oh, we're not the same

B5
   Yeah, the friends who stuck together

We wrote our names in blood

But I guess you can't accept that 
               Em
The change is good 
                G5(9) 
     G5-(9)

It's good, it's       good

E5  G5


Primeiro Refrão:

B5                     D
   Well, you treat me just like
B5            D
   Another stranger
            G                 D5
Well, it's nice to meet you, sir
              G
I guess I'll go
         (Riff 1)
I best be on my way out

(Guitarra 2 - variação)


E|-----------------------------------------------------|
B|-----------------------------------------------------|
G|-11-11-11-11...--------------------------------------|
D|-----------------------------------------------------|
A|--9--9--9--9...--------------------------------------|
E|-----------------------------------------------------|


E|-----------------------------------------------------|
B|-----------------------------------------------------|
G|-12-12-12-12...--11-11-11-11...--12-12-12-12...------|
D|-----------------------------------------------------|
A|-10-10-10-10...---9--9--9--9...--10-10-10-10...------|
E|-----------------------------------------------------|


E|-----------------------------------------------------|
B|---------------10\-----------------------------------|
G|-11-11-9----11---------------------------------------|
D|---------12------------------------------------------|
A|-----------------------------------------------------|
E|-----------------------------------------------------|


B5               D
   You treat me just like
B5            D
   Another stranger
            G                D5
Well, it's nice to meet you sir
              G
I guess I'll go
         (Riff 2)
I best be on my way out

B5
Ignorance 

Is your new best friend
Em
Ignorance 
         G5(9)
Is your new best friend


Segunda Parte:

B5
   And this is the best thing 

That could've happened

Any longer and 

I wouldn't have made it
Em
   It's not a war, no

It's not a rapture
G5(9)
      I'm just a person

     G5-(9)

But you can't take it

B5
   The same tricks that

That once fooled me

They won't get you anywhere
Em
   I'm not the same kid from your memory
G5(9)             
     G5-(9)

      Well, now I can fend for myself


Pré-Refrão:

B5
   Don't wanna hear your sad songs

I don't wanna feel your pain

When you swear it's all my fault

'Cause you know
               Em
We're not the same

We're not the same
     G5(9) 
     G5-(9)

Oh, we're not the same

B5
   Yeah, the friends who stuck together

We wrote our names in blood

But I guess you can't accept that 
               Em
The change is good 
                G5(9) 
     G5-(9)

It's good, it's       good

( E5  G5 )


Segundo Refrão:

B5                     D
   Well, you treat me just like
B5            D
   Another stranger
            G                 D5
Well, it's nice to meet you, sir
              G
I guess I'll go
         (Riff 1)
I best be on my way out

B5               D
   You treat me just like
B5            D
   Another stranger
            G                D5
Well, it's nice to meet you sir
              G
I guess I'll go
         (Riff 2)
I best be on my way out

B5
Ignorance 

Is your new best friend
E5
Ignorance 
         G5
Is your new best friend

B5
Ignorance 
      
Is your new best friend
E5
Ignorance 
         
Is your new best friend


Solo:


E|-----------------------------------------------------|
B|-----------------------------------------------------|
G|-7-7-7-7...--6-6...--4-4...--------------------------|
D|-----------------------------------------------------|
A|-5-5-5-5...--4-4...--2-2...--------------------------|
E|-----------------------------------------------------|


E|-----------------------------------------------------|
B|-----------------------------------------------------|
G|-----------------------------------------------------|
D|-4-4-4-4...--5-5...--4-4...--------------------------|
A|-----------------------------------------------------|
E|-2-2-2-2...--3-3...--2-2...--------------------------|


E|-----------------------------------------------------|
B|-----------------------------------------------------|
G|-7-7-7-7...--6-6...--9-9...--------------------------|
D|-----------------------------------------------------|
A|-5-5-5-5...--4-4...--7-7...--------------------------|
E|-----------------------------------------------------|


E|-----------------------------------------------------|
B|-----------------------------------------------------|
G|-11-11-11-11...--14-14-14-14...----------------------|
D|-----------------------------------------------------|
A|--9--9--9--9...--12-12-12-12...----------------------|
E|-----------------------------------------------------|


E|-----------------------------------------------------|
B|-----------------------------------------------------|
G|-----------------------------------------------------|
D|-2--2--x-x-x-2--2----2-5-----------------------------|
A|-2--2--x-x-x-2--2----2-5-----------------------------|
E|-0--0--x-x-x-0--0----0-3-----------------------------|



Terceiro Refrão:

B5                     D
   Well, you treat me just like
B5            D
   Another stranger
            G                 D5
Well, it's nice to meet you, sir
              G
I guess I'll go
         (Riff 1)
I best be on my way out
B5               D
   You treat me just like
B5            D
   Another stranger
            G                D5
Well, it's nice to meet you sir
              G
I guess I'll go
         (Riff 1)
I best be on my way out
  • 1
  • 2
  • 3
  • 4
  • 5
  • 6
  • 7
  • 8
  • 9
  • 10
  • 11
  • 12
    Acordes para:

      0 comentários

        mostrar mais comentários

        Conseguiu tocar?

        29tocaram2ainda não

        Grave um vídeo tocando Ignorance e mande pra gente!

        00:00 / 00:00
        outros vídeos desta música
        repetirqualidadeautomática
        • automática
        Outro vídeos desta música
          Capítulos
          • Tocando a música
          • Dicas Iniciais / Equipamentos
          • Acordes da Introdução
          • Tocando Introdução
          • Introdução - Guitarra 1
          • Introdução - Guitarra 2
          • Acordes da Primeira Parte
          • Tocando a Primeira Parte
          • Primeira Parte - Guitarra 1
          • Primeira Parte - Guitarra 2
          • Tocando o Pré-Refrão
          • Pré-Refrão
          • Tocando o Refrão
          • Refrão - Guitarra 2 (variação)
          • Tocando o Solo
          • Solo
          • Encerramento
          • Ficha Técnica
          00:00 / 00:00
          automática
          • automática
          1 versão de Tab de baixoexibiçõescontribuições
          1 versão de Partiturasformatodownloadscontribuição
          fecharplay/pause subir/descer velocidade
            acordes
            fechar
            OK
            Feedback