Enviar cifraEntrar

Misery Business

Paramore

Cifra: Principal
exibições 472.895
Tom: A
Afinação: Db  Ab  Db  Gb  Bb  Eb

Introdução: F#5  E5  F#5  D5
            F#5  E5  F#5  ( A5  G#5 )

(Guitarra base)

    F#5            E5
Eb|-----------------------------------------
Bb|-----------------------------------------
Gb|-----------------------------------------
Db|-----------------------------------------
Ab|-4-4--4-2-4-2-4-2-2--2-2-2--2------------
Db|-4-4--4---------2-2--2-2-2--2------------


    F#5            D5
Eb|-----------------------------------------
Bb|-----------------------------------------
Gb|-----------------------------------------
Db|-----------------------------------------
Ab|-4-4--4-2-4-2-4-0-0--0-0-0---------------
Db|-4-4--4---------0-0--0-0-0---------------


    F#5            E5
Eb|-----------------------------------------
Bb|-----------------------------------------
Gb|-----------------------------------------
Db|-----------------------------------------
Ab|-4-4--4-2-4-2-4-2-2--2-2-2--2------------
Db|-4-4--4---------2-2--2-2-2--2------------


    F#5          ( A5      G#5 )
Eb|-----------------------------------------
Bb|-----------------------------------------
Gb|-----------------------------------------
Db|-----------------------------------------
Ab|-4-4--4-2-4-2-4-7-7-7-7-6-6-6-6----------
Db|-4-4--4---------7-7-7-7-6-6-6-6----------



(Riff da Introdução)

Eb|-----------------------------------------
Bb|-----------------------------------------
Gb|-----------------------------------------
Db|-----------9h11-9h11---------------------
Ab|-12-12--12-----------11-11--11-11-11--11-
Db|-----------------------------------------


Eb|-----------------------------------------
Bb|-----------------------------------------
Gb|-----------------------------------------
Db|-----------9h11-9h11---------------------
Ab|-12-12--12-----------9-9--9-9-9----------
Db|-----------------------------------------


Eb|-----------------------------------------
Bb|-----------------------------------------
Gb|-----------------------------------------
Db|-----------9h11-9h11---------------------
Ab|-12-12--12-----------11-11--11-11-11--11-
Db|-----------------------------------------


Eb|-----------------------------------------
Bb|-----------------------------------------
Gb|-----------------------------6-9-9~\-----
Db|-----------9h11-9h11-----7-9-------------
Ab|-12-12--12-----------7h9-----------------
Db|-----------------------------------------



Primeira Parte:

(Guitarra base)
    P.M. . . . . . . .  . . .  .

Eb|-----------------------------------------
Bb|-----------------------------------------
Gb|-----------------------------------------
Db|-----------------------------------------
Ab|-4-4--4-2-4-2-4-2-2--2-2-2--2------------
Db|-4-4--4---------2-2--2-2-2--2------------


    P.M. . . . . . . .  . . .  .

Eb|-----------------------------------------
Bb|-----------------------------------------
Gb|-----------------------------------------
Db|-----------------------------------------
Ab|-4-4--4-2-4-2-4-0-0--0-0-0--0------------
Db|-4-4--4---------0-0--0-0-0--0------------


    P.M. . . . . . . .  . . .  .

Eb|-----------------------------------------
Bb|-----------------------------------------
Gb|-----------------------------------------
Db|-----------------------------------------
Ab|-4-4--4-2-4-2-4-2-2--2-2-2--2------------
Db|-4-4--4---------2-2--2-2-2--2------------


    P.M. . . . . . . . . . . . . .

Eb|-----------------------------------------
Bb|-----------------------------------------
Gb|-----------------------------------------
Db|-----------------------------------------
Ab|-4-4--4-2-4-2-4-7-7-7-7-6-6-6-6----------
Db|-4-4--4---------7-7-7-7-6-6-6-6----------



F#5                         E5
    I'm in the business of misery
                        F#5
Let's take it from the top
                          D5
She's got a body like an hourglass
                      F#5
It's tickin' like a clock
                  E5
It's a matter of time
                  F#5
Before we all run out
                       A5
When I thought he was mine,
                G#5
She caught him by the mouth

(Riff 1)
    P.M .  .  .  .  .  .

Eb|-----------------------------------------
Bb|--------------10----10-------------------
Gb|-11--11-11-11----11----11----------------
Db|-----------------------------------------
Ab|-----------------------------------------
Db|-----------------------------------------


    P.M.  .  .  .  .  .

Eb|-----------------------------------------
Bb|----------10----10-----------------------
Gb|-11-11-11----11----11--------------------  (2x)
Db|-----------------------------------------
Ab|-----------------------------------------
Db|-----------------------------------------


    P.M.  .  .  .  . .

Eb|-----------------------------------------
Bb|----------10-----------------------------
Gb|-11-11-11----11-9-11---------------------
Db|-----------------------------------------
Ab|-----------------------------------------
Db|-----------------------------------------


    P.M.  .  .  .  .  .

Eb|-----------------------------------------
Bb|----------10----10-----------------------
Gb|-11-11-11----11----11--------------------  (2x)
Db|-----------------------------------------
Ab|-----------------------------------------
Db|-----------------------------------------


    P.M.  .  .  .  .  . 

Eb|-----------------------------------------
Bb|----------10----10-10h12-12/14-14\-------
Gb|-11-11-11----11--------------------------
Db|-----------------------------------------
Ab|-----------------------------------------
Db|-----------------------------------------



F#5                      E5
    I waited eight long months
                      F#5
She finally set him free
                       D5
I told him I couldn't lie
                         F#5
He was the only one for me
                    E5
Two weeks and we'd caught on fire
             F#5
She's got it out for me
                A5       G#5
But I wear the biggest smile

( F#5  E5 )

(Variação da base no final da Primeira Parte)
    P.M . . . . . . . . . .

Eb|-----------------------------------------
Bb|-----------------------------------------
Gb|-----------------------------------------
Db|-----------------------------------------
Ab|-4-4-4-4-4-4-4-4-2-2-2-2-2---------------
Db|-4-4-4-4-4-4-4-4-2-2-2-2-2---------------



Primeiro Refrão:

(Guitarra Solo)

    D5                      A5
Eb|---------------------------------------------------
Bb|---------------------------------------------------
Gb|-11-11-11-11-11-11-11-11-9-9-9-9-9-9-9-9-----------
Db|---------------------------------------------------
Ab|-9--9--9--9--9--9--9--9--7-7-7-7-7-7-7-7-----------
Db|---------------------------------------------------


    E5                      F#m         F#5(9)
Eb|---------------------------------------------------
Bb|---------------------------------------------------
Gb|-13-13-13-13-11-11-11-11-14-14-14-14-13-13-13-13---
Db|---------------------------------------------------
Ab|-11-11-11-11-9--9--9--9--12-12-12-12-11-11-11-11---
Db|---------------------------------------------------



D5             A5                 E5
   Whoa, well, I never meant to brag
       F#m             F#5(9)   D5
But I got him where I want him now
              A5                     E5
Whoa, it was never my intention to brag
     F#m          F#5(9)       D5
To steal it all away from you now

(Guitarra Solo)

    D5                          A5
Eb|---------------------------------------------------
Bb|---------------------------------------------------
Gb|-11--11--11--11--11--11--11--14-14-14--------------
Db|---------------------------------------------------
Ab|-9---9---9---9---9---9---9---12-12-12--------------
Db|---------------------------------------------------


    E5                          A5
Eb|---------------------------------------------------
Bb|---------------------------------------------------
Gb|-13--13--13--13--13--13--13--14-14-14--------------
Db|---------------------------------------------------
Ab|-11--11--11--11--11--11--11--12-12-12--------------
Db|---------------------------------------------------


    D5                          A5
Eb|---------------------------------------------------
Bb|---------------------------------------------------
Gb|-11--11--11--11--11--11--11--14-14-14--------------
Db|---------------------------------------------------
Ab|-9---9---9---9---9---9---9---12-12-12--------------
Db|---------------------------------------------------


    E5              A5          G#5
Eb|---------------------------------------------------
Bb|---------------------------------------------------
Gb|-13--13--13--13--18-18-18-18-16--------------------
Db|---------------------------------------------------
Ab|-11--11--11--11--16-16-16-16-14--------------------
Db|---------------------------------------------------



                       A5     E5
But, God, does it feel    so good
                             A5      D5
Cause I got him where I want    him now
                                A5      E5
And if you could, then you know    you would
        A5           G#5
Cause, God, it just feels so

F#5  E5                F#5    D5
        It just feels so good

(Guitarra Base)

    F#5            E5
Eb|-----------------------------------------
Bb|-----------------------------------------
Gb|-----------------------------------------
Db|-----------------------------------------
Ab|-4-4--4-2-4-2-4-2-2--2-2-2--2------------
Db|-4-4--4---------2-2--2-2-2--2------------


    F#5            D5
Eb|-----------------------------------------
Bb|-----------------------------------------
Gb|-----------------------------------------
Db|-----------------------------------------
Ab|-4-4--4-2-4-2-4-0--0--0--0---------------
Db|-4-4--4---------0--0--0--0---------------


(Riff da Introdução - Variação)

Eb|---------------------------------------------------
Bb|---------------------------------------------------
Gb|---------------------------------------------------
Db|-----------9h11-9h11-------------------------------
Ab|-12-12--12-----------11-11--11-11-11--11-----------
Db|---------------------------------------------------


Eb|---------------------------------------------------
Bb|---------------------------------------------------
Gb|---------------------------------------------------
Db|-----------9h11-9h11-------------------------------
Ab|-12-12--12-----------9--9--9--9--------------------
Db|---------------------------------------------------



Segunda Parte:
F#5                            E5
    Second chances, they don't ever matter,
               F#5
People never change
                              D5
Once a whore, you're nothing more,
                           F#5
I'm sorry, that'll never change
                  E5
And about forgiveness,
                                F#5
we're both supposed to have exchanged
                         A5
I'm sorry, honey, but I passed it up,
     G#5
Now look this way

(Riff 1)

F#5
    Well, there's a million other
 E5                        F#5
Girls who do it just like you

Looking as innocent
    D5                  F#5
As possible to get to who

They want and what they like,
     E5
It's easy if you do it right
F#5                      A5        G#5
    Well, I refuse, I refuse, I refuse

( F#5  E5 )

Segundo Refrão:
D5             A5                 E5
   Whoa, well, I never meant to brag
       F#m             F#5(9)   D5
But I got him where I want him now
              A5                     E5
Whoa, it was never my intention to brag
     F#m          F#5(9)       D5
To steal it all away from you now

                       A5     E5
But, God, does it feel    so good
                             A5      D5
Cause I got him where I want    him now
                                A5      E5
And if you could, then you know    you would
        A5           G#5
Cause, God, it just feels so

Riff - Interlúdio:

(Guitarra Solo)

Eb|------0-----------0-----------0-----------0--------
Bb|----0---0-------0---0-------0---0-------0---0------
Gb|----------4-----------4-----------4-----------4----
Db|---------------------------------------------------
Ab|-------------0-------------------------------------
Db|-0-----------------------2-----------4-------------


(Guitarra Base)


Eb|-0-----------0-----------0-------------------------
Bb|-0-----------0-----------0-----------------0-------
Gb|-11----------6-----------4--------------4----------
Db|-0-----------0-----------2-------------------------
Ab|---------------------------------------------------
Db|-12----------7-----------2-----------4-------------



It just feels so good
I watched his wildest dreams come true
Not one of them involving you
Just watch my wildest dreams come true
Not one of them involving

Solo: D5  A5  E5 ( F#m  F#5(9) )
      D5  A5  E5 ( F#m  F#5(9) )
      D5  E5
      D5  E5  ( A5  G#5 )


Eb|---------------------------------------------------
Bb|---------------------------------------------------
Gb|-9h11-9-9-9-9-9-9-9h11-9-9-9-9-9-9-9h11-9-9-9-9-9-9
Db|---------------------------------------------------
Ab|---------------------------------------------------
Db|---------------------------------------------------


Eb|-10-10-10-10-9-9-9-9-------------------------------
Bb|---------------------------------------------------
Gb|---------------------------------------------------
Db|---------------------------------------------------
Ab|---------------------------------------------------
Db|---------------------------------------------------


Eb|---------------------------------------------------
Bb|---------------------------------------------------
Gb|-9h11-9-9-9-9-9-9-9h11-9-9-9-9-9-9-9h11-9-9-9-9-9-9
Db|---------------------------------------------------
Ab|---------------------------------------------------
Db|---------------------------------------------------


Eb|-10-10-10-10-9-9-9-9-12-12-12-12-12-12-12-12-------
Bb|---------------------------------------------------
Gb|---------------------------------------------------
Db|---------------------------------------------------
Ab|---------------------------------------------------
Db|---------------------------------------------------


Eb|---------------------------------------------------
Bb|-15-15-15-15-15-15-15-15-14-14-14-14-14-14-14-14---
Gb|---------------------------------------------------
Db|---------------------------------------------------
Ab|---------------------------------------------------
Db|---------------------------------------------------


Eb|-------------------------12-12-12-12-12-12-12-12---
Bb|-12-12-12-12-12-12-12-12---------------------------
Gb|---------------------------------------------------
Db|---------------------------------------------------
Ab|---------------------------------------------------
Db|---------------------------------------------------


Eb|-14-14-14-14-14-14-14-14-17-17-17-17-19-19-21-21---
Bb|---------------------------------------------------
Gb|---------------------------------------------------
Db|---------------------------------------------------
Ab|---------------------------------------------------
Db|---------------------------------------------------


Eb|-16b17r--16-16b17-16~~-----------------------------
Bb|---------------------------------------------------
Gb|---------------------------------------------------
Db|---------------------------------------------------
Ab|---------------------------------------------------
Db|---------------------------------------------------



Terceiro Refrão:

Whoa, well, I never meant to brag
                                D5
But I got him where I want him now
            A5                 E5
Whoa, well, I never meant to brag
       F#m             F#5(9)   D5
But I got him where I want him now
              A5                     E5
Whoa, it was never my intention to brag
     F#m          F#5(9)       D5
To steal it all away from you now

                       A5     E5
But, God, does it feel    so good
                             A5      D5
Cause I got him where I want    him now
                                A5      E5
And if you could, then you know    you would
        A5           G#5
Cause, God, it just feels so

Final:
( F#5  E5  F#5  D5 )

F#5  E5                F#5    D5
        It just feels so good
  • 1
  • 2
  • 3
  • 4
  • 5
  • 6
  • 7
  • 8
  • 9
  • 10
  • 11
  • 12
    Acordes para:

      0 comentários

        mostrar mais comentários

        Conseguiu tocar?

        93tocaram0ainda não

        Grave um vídeo tocando Misery Business e mande pra gente!

        00:00 / 00:00
        outros vídeos desta música
        repetirqualidadeautomática
        • automática
        Outro vídeos desta música
          Capítulos
          • Início
          • Afinação
          • Tocando a música
          • Configuração dos Efeitos
          • Acordes da Introdução
          • Tocando Introdução
          • Ensinando Introdução - Guitarra Base
          • Ensinando Riff da Introdução
          • Tocando Primeira Parte
          • Ensinando Primeira Parte - Guitarra Base
          • Ensinando Primeira Parte - Guitarra Solo
          • Acordes do Refrão
          • Tocando Refrão
          • Ensinando Refrão - Guitarra Base
          • Ensinando Refrão - Guitarra Solo
          • Tocando Interlúdio
          • Ensinando Interlúdio - Guitarra Base
          • Ensinando Interlúdio - Guitarra Solo
          • Tocando Solo
          • Ensinando Solo
          • Encerramento
          00:00 / 00:00
          automática
          • automática
          Acordes para:violão e guitarra
          dificuldadeexibiçõescontribuições
          1 versão de Tab de baixoexibiçõescontribuições
          1 versão de Tab de bateriaexibiçõescontribuições
          2 versões de Guitar Proformatodownloadscontribuição
          fecharplay/pause subir/descer velocidade
            acordes
            fechar
            OK
            Feedback