Cifra Club

Aprenda

Misguided Ghosts

Paramore

Cifra: Principal (violão e guitarra)
Já pensou em usar uma coleção de roupas do Cifra Club? Responda as perguntas abaixo e nos ajude nessa missão! →
tom: C
intro:
E|----0-------3---|----------------------------------|
B|0h1---1-1p0---0-|-----0---0h1-0-----0----0h1--3--1-|
G|----------------|2x-0---0-------0------------------|
D|----------------------------------2----2-----------|
A|---------------------------------------------------|
E|---------------------------------------------------| 2x

E|----0-------3---|----------------------------------|
B|0h1---1-1p0---0-|-----0---0h1-0-----0----0h1--3----|
G|----------------|2x-0---0-------0----------------0-|
D|----------------------------------2----2-----------|
A|---------------------------------------------------|
E|---------------------------------------------------| 2x

E|-12----12-12----12-10----10-10----10-8----8-8----8-10----10-10----10|
B|----13-------13-------12-------12------10-----10------12-------12---|
G|--------------------------------------------------------------------|
D|--------------------------------------------------------------------|
A|--------------------------------------------------------------------|
E|--------------------------------------------------------------------| 2x

E|-------------------------|   |
B|-5-3-0-1---1-1---1-1---1-|   |
G|---------0-----0-----0---|   |
D|-------------------------|   |
A|-7-5-2-3-----------------|   |
E|-------------------------|   |
                               |
E|-------------------------|   |
B|-5-3-0-------------------|   |
G|-------2---2-2---2-2---2-|   |
D|---------3-----3-----3---|   |
A|-7-5-2-------------------|   |
E|-------1-----------------|   |2x

E|----0-------3---|----------------------------------|
B|0h1---1-1p0---0-|-----0---0h1-0-----0----0h1--3----|
G|----------------|2x-0---0-------0----------------0-|
D|----------------------------------2----2-----------|
A|---------------------------------------------------|
E|---------------------------------------------------| 3x

E|-12----12-12----12-10----10-10----10-8----8-8----8-10----10-10----10|
B|----13-------13-------12-------12------10-----10------12-------12---|
G|--------------------------------------------------------------------|
D|--------------------------------------------------------------------|
A|--------------------------------------------------------------------|
E|--------------------------------------------------------------------| 2x

E|-------------------------|
B|-5-3-0-1---1-1---1-1---1-|   | sequencia, se quiser vc pode fazer isso:
G|---------0-----0-----0---|   |  E|-------------------|
D|-------------------------|   |  B|-5-3-0-1---1-1~3~1-|
A|-7-5-2-3-----------------|   |  G|---------0---------|
E|-------------------------|   |  D|-------------------|
                               |  A|-7-5-2-3-----------|
E|-------------------------|   |  E|-------------------|
B|-5-3-0-------------------|   |
G|-------2---2-2---2-2---2-|   |
D|---------3-----3-----3---|   |
A|-7-5-2-------------------|   |
E|-------1-----------------|   | 5x

E|----0-------3---|----------------------------------|
B|0h1---1-1p0---0-|-----0---0h1-0-----0----0h1--3----|
G|----------------|2x-0---0-------0----------------0-|
D|----------------------------------2----2-----------|
A|---------------------------------------------------|
E|---------------------------------------------------| 2x

E|-----|
B|-----|
G|-----|
D|-----|
A|-5-~~|
E|-3-~~|
Composição de Hayley Williams / Josh Farro / Taylor York
Colaboração e revisão:
80.888 exibições
  • Simplificar cifra
    • ½ Tom
    • A
    • Bb
    • B
    • C
    • Db
    • D
    • Eb
    • E
    • F
    • F#
    • G
    • Ab
  • Adicionar à lista

    0 comentários

    Ver todos os comentários

    Conseguiu tocar?

    26 Tocaram 5 Ainda não

    Grave um vídeo tocando Misguided Ghosts e nos envie!

    00:00 / 00:00
    Outros vídeos desta música
    Repetir Qualidade Automático
    Outros vídeos desta música
    00:00 / 00:00
    Automático

    Cifra Club Pro

    Aproveite o Cifra Club com benefícios exclusivos e sem anúncios
    Cifra Club Pro
    Aproveite o Cifra Club com benefícios exclusivos e sem anúncios
    OK