Cifra Club

Black Friday Cifra Club

Temporary

Paramore

Cifra: Principal (violão e guitarra)
tom: D
INTRO

Guitarra 1 -
|-----------------------------------------------------------------------|
|-----------------------------------------------------------------------|
|-9996666666666666-9996666666666666--777666-666666666-777666-666666666--|2x
|-7777777777777777-7777777777777777--777777-777777777-777777-777777777--|
|-------------------------------------------999999999--------999999999--|
|-----------------------------------------------------------------------|

Guitarra 2
|----------------------------------------------------------------------|
|----------------------------------------------------------------------|
|-------------------------------------7777777777777777-----------------|
|-------------------------------------7777777777777777-999999999999999-|
|-------------------------------------5555555555555555-999999999999999-|
|------------------------------------------------------999999999999999-|

|---------------------------------------------------------------------|
|---------------------------------------------------------------------|
|----------------------------------------------------7777777777777777-|
|-4444444444444444-7777777777777777-9999999999999999-7777777777777777-|
|-4444444444444444-7777777777777777-9999999999999999-5555555555555555-|
|-4444444444444444-7777777777777777-9999999999999999------------------|


Verso-
Guitarra 1
|---------4----|-------------4----------|-----------------4---|
|-----2--------|---------2-------2------|-----------2---------|
|-4------------|----4-------------------|------4--------------|
|--------------|------------------------|---------------------|
|--------------|------------------------|---------------------|
|--------------|------------------------|---------------------|

Guitarra 2
|-------------------------------------------------------------------|
|-------------------------------------------------------------------|
|-----------------666666666666666-------------------666666666666666-|
|-777777777777777-666666666666666--777777777777777--666666666666666-|
|-777777777777777-444444444444444--777777777777777--444444444444444-|
|-777777777777777------------------777777777777777------------------|
  

Refrão 
Guitarra 1
|-7-------7-------7-------7-------7-------7-------7-------------------|
|---5---5---5---5---5---5--5---5----5---5---5---5---5---5-------------|
|-----6-------6-------6------6--------6-------6-------6---------------|
|----------------------------------------------------------4-4-4-2-4--|
|----------------------------------------------------------4-4-4-2-4--|
|----------------------------------------------------------4-4-4-2-4--|

Guitarra 2
|---------------------------------------------------------------------|
|---------------------------------------------------------------------|
|-----------------6-6-6-6-6-6-6-6-----------------6-6-6-6-------------|
|-7-7-7-7-7-7-7-7-6-6-6-6-6-6-6-6-7-7-7-7-7-7-7-7-6-6-6-6--4-4-4-2-4--|
|-7-7-7-7-7-7-7-7-4-4-4-4-4-4-4-4-7-7-7-7-7-7-7-7-4-4-4-4--4-4-4-2-4--|
|-7-7-7-7-7-7-7-7-----------------7-7-7-7-7-7-7-7----------4-4-4-2-4--|



Refrão
Guitarra 1
|-----------------------------------------------------------------------|
|-----------------------------------------------------------------------|
|-9996666666666666-9996666666666666--777666-666666666-777666-666666666--|2x
|-7777777777777777-7777777777777777--777777-777777777-777777-777777777--|
|-------------------------------------------999999999--------999999999--|
|-----------------------------------------------------------------------|

Guitarra 2
|----------------------------------------------------------------------|
|----------------------------------------------------------------------|
|-------------------------------------7777777777777777-----------------|
|-7777777777777777--4444444444444444--7777777777777777-999999999999999-|
|-7777777777777777--4444444444444444--5555555555555555-999999999999999-|
|-7777777777777777--4444444444444444-------------------999999999999999-|

|---------------------------------------------------------------------|
|---------------------------------------------------------------------|
|----------------------------------------------------7777777777777777-|
|-4444444444444444-7777777777777777-9999999999999999-7777777777777777-|
|-4444444444444444-7777777777777777-9999999999999999-5555555555555555-|
|-4444444444444444-7777777777777777-9999999999999999------------------|




Faça o verso e o refrão

Ponte - [batidas da bateria ]

Guitarra 1
|-------------------------------------------------------------------|
|-------------------------------------------------------------------|
|-----13h14p13-------13h14p13----13h14p13----13h14p13---------------|4x
|--------------14------------14----------14----------14---12h14-11~-|
|----------------14~-----------14~---------14~---------14~----------|
|-------------------------------------------------------------------|

Guitarra 2
|-------------------------------------------------------------------|
|-------------------------------------------------------------------|
|-----------------666666666666666-------------------666666666666666-|
|-777777777777777-666666666666666--777777777777777--666666666666666-|2x
|-777777777777777-444444444444444--777777777777777--444444444444444-|
|-777777777777777------------------777777777777777------------------|

Guitarra 2

|-----------------------------------------------------------|
|-----------------------------------------------------------|
|-1818181818181818181818181818181818181818------------------|
|-x-x-x-x-x-x-x-x-x-x-x-x-x-x-x-x-x-x-x-x-------------------|
|-1616161616161616161616161616161616161616------------------|
|-----------------------------------------------------------|


Repete o refrão


outro

Guitarra 1

|-7-------7-------7-------7-------7-------7-------7-------------------|
|---5---5---5---5---5---5--5---5----5---5---5---5---5---5-------------|
|-----6-------6-------6------6--------6-------6-------6---------------|
|----------------------------------------------------------4-4-4-2-4--|
|----------------------------------------------------------4-4-4-2-4--|
|----------------------------------------------------------4-4-4-2-4--|

Guitarra 2

|---------------------------------------------------------------------|
|---------------------------------------------------------------------|
|-----------------6-6-6-6-6-6-6-6-----------------6-6-6-6-------------|
|-7-7-7-7-7-7-7-7-6-6-6-6-6-6-6-6-7-7-7-7-7-7-7-7-6-6-6-6--4-4-4-2-4--|
|-7-7-7-7-7-7-7-7-4-4-4-4-4-4-4-4-7-7-7-7-7-7-7-7-4-4-4-4--4-4-4-2-4--|
|-7-7-7-7-7-7-7-7-----------------7-7-7-7-7-7-7-7----------4-4-4-2-4--|
00:00 / 00:00
Outros vídeos desta música
Repetir
Outros vídeos desta música
Compositor não encontrado.
Colaboração e revisão:
  • Thaís Oliveira
5.826 exibições
  • Simplificar cifra
    • ½ Tom
    • A
    • Bb
    • B
    • C
    • Db
    • D
    • Eb
    • E
    • F
    • F#
    • G
    • Ab
  • Adicionar à lista

    0 comentários

    Ver todos os comentários

    Conseguiu tocar?

    2 Tocaram 0 Ainda não

    Grave um vídeo tocando Temporary e nos envie!

    Entre para oCifra Club PRO

    Tenha acesso a benefícios exclusivos no App e no Site

    • Chega de anúncios

    • Prioridade de compra em lançamentos

    • Mais recursos no app do Afinador

    • Atendimento Prioritário

    • Descontos nos produtos Cifra Club

    • Ajude a produzir mais conteúdo

    00:00 / 00:00

    Cifra Club Pro

    Aproveite o Cifra Club com benefícios exclusivos e sem anúncios
    Cifra Club Pro
    Aproveite o Cifra Club com benefícios exclusivos e sem anúncios
    OK