Cifra Club

Aprenda

Open Bar

Parangolé

Cifra: Principal (violão e guitarra)
Tom: Gm
[Intro] Eb  D5

[Guitarra 1]

E|-15-15-15-------------------------------------------|
B|-16-16-16-----------------18-18-18------------------|
G|----------17-15-15--15-17-17-17-17-17-15-15--15-17--|
D|----------------------------------------------------|
A|----------------------------------------------------|
E|----------------------------------------------------|

E|-15-15-15----15-15-15-----15-15-15------15-15-15----|
B|-16-16-16----16-16-16-----16-16-16------16-16-16----|
G|----------17-----------17-----------17--------------|
D|----------------------------------------------------|
A|----------------------------------------------------|
E|----------------------------------------------------|

[Guitarra 2]

E|----------------------------------------------------|
B|----------------------------------------------------|
G|---8-7-5~-5----8-7-5~-5-----------------------------|
D|----------------------------------------------------|
A|-6-----------6--------------------------------------|
E|----------------------------------------------------|

E|----------------------------------------------------|
B|----------------------------------------------------|
G|-----3-3/5------3-3/5------3-3/5------8-7-5-3-5-----|
D|---5----------5----------5--------------------------|
A|-6----------6----------6-----------6----------------|
E|----------------------------------------------------|

[Primeira Parte]

          Eb  Bb
Fim de semana    tô preparado 
Eb        
  Chama as meninas e os parceiros 

Hoje o Whisky é liberado

          Eb  Bb
Fim de semana    tô preparado 
Eb        
  Chama as meninas e os parceiros 

Hoje o Whisky é liberado

[Pré-Refrão]

E|----------------------------------------------------|
B|---8-8---8-8---9-9---10-10---11-11------------------|
G|------------------------------------5-5-6-6-7-7-8---|
D|-------5-----6-----7-------8------------------------|
A|-6--------------------------------------------------|
E|----------------------------------------------------|

E o que tem pra hoje é festa Open bar 

[Refrão]

E|---8-8-6----8-8-6----8-8-6---8-8-6------------------|
B|----------------------------------------------------|
G|-8--------8--------7-------7------------------------|
D|----------------------------------------------------|
A|----------------------------------------------------|
E|----------------------------------------------------|

E|---8-8-6----8-8-6----8-8-6---8-8-6------------------|
B|----------------------------------------------------|
G|-8--------8--------7-------7------------------------|
D|----------------------------------------------------|
A|----------------------------------------------------|
E|----------------------------------------------------|

E|---8-8-6----8-8-6----8-8-6---8-8-6------------------|
B|----------------------------------------------------|
G|-8--------8--------7-------7------------------------|
D|----------------------------------------------------|
A|----------------------------------------------------|
E|----------------------------------------------------|

E|----------------------------------------------------|
B|----------------------------------------------------|
G|-8-----------------------------------------8--------|
D|---8-10-8-10-8-10-11-12--8-10-8-10-8-10-12----------|
A|----------------------------------------------------|
E|----------------------------------------------------|

E|----------------------------------------------------|
B|----------------------------------------------------|
G|-8-8-8----------------------------------------------|
D|--------8-8-8--10-10-10--11-11-11--12-12-12---------|
A|----------------------------------------------------|
E|----------------------------------------------------|

E|----------------------------------------------------|
B|----------------------------------------------------|
G|----------------------------------------------------|
D|-8-8-8--10-10-10--11-11-11--12-12-12----------------|
A|----------------------------------------------------|
E|----------------------------------------------------|

Eb                  D5            
Elas pedem a gente pá 
                    Eb
Elas bebem a gente pá
                  D5
A novinha tá louquinha tá pedindo pra sentar 
Eb                  D5            
Elas pedem a gente pá 
                    Eb
Elas bebem a gente pá
                  D5                      Eb
A novinha tá louquinha tá pedindo pra sentar 
                                    D5
Sentar, sentar, sentar, sentar, sentar

( Eb )
                                    D5
Sentar, sentar, sentar, sentar, sentar

[Terceira Parte]

E|----------------------------------------------------|
B|-----------------------------------------------8----|
G|-----8-7-----8-7-----8-7-----8-7-----8-7-----8------|
D|---5-------6-------5-------5-------6-------6--------|
A|-6-------8-------6-------6-------8-------8----------|
E|----------------------------------------------------|

E|----------------------------------------------------|
B|-----------------------------------------------8----|
G|-----8-7-----8-7-----8-7-----8-7-----8-7-----8------|
D|---5-------6-------5-------5-------6-------6--------|
A|-6-------8-------6-------6-------8-------8----------|
E|----------------------------------------------------|

Ê novinha já pode passar o Zap

Chama todas amiguinhas 

Hoje o baile é de verdade

[Pré-Refrão]

E|----------------------------------------------------|
B|---8-8---8-8---9-9---10-10---11-11------------------|
G|------------------------------------5-5-6-6-7-7-8---|
D|-------5-----6-----7-------8------------------------|
A|-6--------------------------------------------------|
E|----------------------------------------------------|

E o que tem pra hoje é festa Open bar 

[Refrão]

E|---8-8-6----8-8-6----8-8-6---8-8-6------------------|
B|----------------------------------------------------|
G|-8--------8--------7-------7------------------------|
D|----------------------------------------------------|
A|----------------------------------------------------|
E|----------------------------------------------------|

E|---8-8-6----8-8-6----8-8-6---8-8-6------------------|
B|----------------------------------------------------|
G|-8--------8--------7-------7------------------------|
D|----------------------------------------------------|
A|----------------------------------------------------|
E|----------------------------------------------------|

E|---8-8-6----8-8-6----8-8-6---8-8-6------------------|
B|----------------------------------------------------|
G|-8--------8--------7-------7------------------------|
D|----------------------------------------------------|
A|----------------------------------------------------|
E|----------------------------------------------------|

E|----------------------------------------------------|
B|----------------------------------------------------|
G|-8-----------------------------------------8--------|
D|---8-10-8-10-8-10-11-12--8-10-8-10-8-10-12----------|
A|----------------------------------------------------|
E|----------------------------------------------------|

E|----------------------------------------------------|
B|----------------------------------------------------|
G|-8-8-8----------------------------------------------|
D|--------8-8-8--10-10-10--11-11-11--12-12-12---------|
A|----------------------------------------------------|
E|----------------------------------------------------|

E|----------------------------------------------------|
B|----------------------------------------------------|
G|----------------------------------------------------|
D|-8-8-8--10-10-10--11-11-11--12-12-12----------------|
A|----------------------------------------------------|
E|----------------------------------------------------|

Eb                  D5            
Elas pedem a gente pá 
                    Eb
Elas bebem a gente pá
                  D5
A novinha tá louquinha tá pedindo pra sentar 
Eb                  D5            
Elas pedem a gente pá 
                    Eb
Elas bebem a gente pá
                  D5                      Eb
A novinha tá louquinha tá pedindo pra sentar 
                                    D5
Sentar, sentar, sentar, sentar, sentar

( Eb )
                                    D5
Sentar, sentar, sentar, sentar, sentar

[Terceira Parte]

E|----------------------------------------------------|
B|-----------------------------------------------8----|
G|-----8-7-----8-7-----8-7-----8-7-----8-7-----8------|
D|---5-------6-------5-------5-------6-------6--------|
A|-6-------8-------6-------6-------8-------8----------|
E|----------------------------------------------------|

E|----------------------------------------------------|
B|-----------------------------------------------8----|
G|-----8-7-----8-7-----8-7-----8-7-----8-7-----8------|
D|---5-------6-------5-------5-------6-------6--------|
A|-6-------8-------6-------6-------8-------8----------|
E|----------------------------------------------------|

Ê novinha já pode passar o Zap

Chama todas amiguinhas 

Hoje o baile é de verdade

[Pré-Refrão]

E|----------------------------------------------------|
B|---8-8---8-8---9-9---10-10---11-11------------------|
G|------------------------------------5-5-6-6-7-7-8---|
D|-------5-----6-----7-------8------------------------|
A|-6--------------------------------------------------|
E|----------------------------------------------------|

E o que tem pra hoje é festa Open bar 

[Refrão]

E|---8-8-6----8-8-6----8-8-6---8-8-6------------------|
B|----------------------------------------------------|
G|-8--------8--------7-------7------------------------|
D|----------------------------------------------------|
A|----------------------------------------------------|
E|----------------------------------------------------|

E|---8-8-6----8-8-6----8-8-6---8-8-6------------------|
B|----------------------------------------------------|
G|-8--------8--------7-------7------------------------|
D|----------------------------------------------------|
A|----------------------------------------------------|
E|----------------------------------------------------|

E|---8-8-6----8-8-6----8-8-6---8-8-6------------------|
B|----------------------------------------------------|
G|-8--------8--------7-------7------------------------|
D|----------------------------------------------------|
A|----------------------------------------------------|
E|----------------------------------------------------|

E|----------------------------------------------------|
B|----------------------------------------------------|
G|-8-----------------------------------------8--------|
D|---8-10-8-10-8-10-11-12--8-10-8-10-8-10-12----------|
A|----------------------------------------------------|
E|----------------------------------------------------|

E|----------------------------------------------------|
B|----------------------------------------------------|
G|-8-8-8----------------------------------------------|
D|--------8-8-8--10-10-10--11-11-11--12-12-12---------|
A|----------------------------------------------------|
E|----------------------------------------------------|

E|----------------------------------------------------|
B|----------------------------------------------------|
G|----------------------------------------------------|
D|-8-8-8--10-10-10--11-11-11--12-12-12----------------|
A|----------------------------------------------------|
E|----------------------------------------------------|

Eb                  D5            
Elas pedem a gente pá 
                    Eb
Elas bebem a gente pá
                  D5
A novinha tá louquinha tá pedindo pra sentar 
Eb                  D5            
Elas pedem a gente pá 
                    Eb
Elas bebem a gente pá
                  D5                      Eb
A novinha tá louquinha tá pedindo pra sentar 
                                    D5
Sentar, sentar, sentar, sentar, sentar

( Eb )
                                    D5
Sentar, sentar, sentar, sentar, sentar
Composição de Jeferson Ribeiro / Luciano Chaves / Tony Salles / Webiston Leite
Colaboração e revisão:
  • Getúlio Vasconcelos
7.376 exibições
    • ½ Tom
    • Am
    • Bbm
    • Bm
    • Cm
    • C#m
    • Dm
    • Ebm
    • Em
    • Fm
    • F#m
    • Gm
    • G#m
  • Adicionar à lista

    0 comentários

    Mostrar mais comentários

    Conseguiu tocar?

    1 Tocaram 1 Ainda não

    Grave um vídeo tocando Open Bar e mande pra gente!

    00:00 / 00:00
    outros vídeos desta música
    repetir qualidade Automático
    Outros vídeos desta música
    00:00 / 00:00
    Automático

    Cifra Club Pro

    Aproveite o Cifra Club com benefícios exclusivos e sem anúncios
    7 dias grátis
    Cifra Club Pro
    Aproveite o Cifra Club com benefícios exclusivos e sem anúncios
    7 dias grátis
    OK