Cifra Club

Prey

Parkway Drive

Cifra: Principal (violão e guitarra)
Selo Cifra Club: esta cifra foi revisada para atender aos critérios oficiais da nossa Equipe de Qualidade.
tom: B
1
E|--------^-----------------------^-----------------------^-----------------------------|
B|-------8-7-----7---------------8-7-----7--8--8---------8-7-----7--------8-8-8----8----|
G|-9--9-------9-----9--9---9--9-------9------------9--9-------9-----9--9--------11---11-|
D|--------------------------------------------------------------------------------------|
A|--------------------------------------------------------------------------------------|
E|--------------------------------------------------------------------------------------|
    *  *       *     *  *   *  *       *            *  *       *     *  *

2
E|--------------------------------------------------------------------------------------|
B|--------------------------------------------------------------------------------------|
G|--------^-----------------------^----------------------^------------------------------|
D|-------5-4-----4---------------5-4-----4--5--5--------5-4-----4--------5-5-5---5------|
A|-7--7-------5-----5--5---7--7-------5-----------7--7-------5-----5--5--------9---9----|
E|--------------------------------------------------------------------------------------|
    *  *       *     *  *   *  *       *           *  *       *     *  *        *   *




0:17



E|-15--15--15----15-------|
B|------------19----19-17-|
G|------------------------|
D|1| |------------------------|
A|-------^-------------------------^------------------------^----------------|------------------------|
E|------8-7-----7-----------^-----8-7-----7--8-7-----^-----8-7-----7---------|------------------------|
E|-9-9-------9-----9--9-9--7-9-9-------9---------7--7-9-9-------9-----9--9-9-|
B|---------------------------------------------------------------------------|------------------------|
G|---------------------------------------------------------------------------|-8--8--8------8---------|
D|---------------------------------------------------------------------------|----------11-----11-----|
      *       *                  *      *                *       *            |------------------------|
E|------------------------|
B|------------------------|
                     
2
E|----------------------------------------------------------------------------------------|
B|----------------------------------------------------------------------------------------|
G|----------------------------------------------------------------------------------------|
D|------------------------5--5-5-5-5--7--7--7-7-------------------------5--5--5-----------|
A|-2--2-2-2-2--2--2--2-2--3--3-3-3-3--5--5--5-5--2--2-2-2-2--2--2--2-2--3--3--3--0--0--0--|
E|-2--2-2-2-2--2--2--2-2-------------------------2--2-2-2-2--2--2--2-2-----------0--0--0--|

                                   
                                                                       
                                                                        
1                                                                          
E|-------^-------------------------^------------------------^-------------------------------------------|
B|------8-7-----7-----------^-----8-7-----7--8-7-----^-----8-7-----7---------8---8-7-----10---10-8------|
G|-9-9-------9-----9--9-9--7-9-9-------9---------7--7-9-9-------9-----9--9-9---9-----9-7----9------11-9-|
D|------------------------------------------------------------------------------------------------------|
A|-----------------------------------------------------------------------------------------------------|
E|-----------------------------------------------------------------------------------------------------|
      *       *                  *      *                *       *              *            *                                                                      
2
E|-------------------------------------------------------------------------------|
B|-------------------------------------------------------------------------------|
G|-------------------------------------------------------------------------------|
D|------------------------5--5-5-5-5--7--7--7-7-------------------------5-----7--|
A|-2--2-2-2-2--2--2--2-2--3--3-3-3-3--5--5--5-5--2--2-2-2-2--2--2--2-2--3-----5--|
E|-2--2-2-2-2--2--2--2-2-------------------------2--2-2-2-2--2--2--2-2-----------|








0:32



1    H
E|-12---------------------------------------------| H---------------------|
B|---------------------------------| H--------------7---------------------|
G|---------------------------------5------------------------------------|
D|----------------------------------------------------------------------|
A|----------------------------------------------------------------------|
E|----------------------------------------------------------------------|

2
E|----------------------------------------------------------------------|
B|----------------------------------------------------------------------|
G|----------------------------------------------------------------------|
D|----------------------------------------------------------------------|
A|----------------------------------------------------------------------|
E|-2--2-2-2-0-2----2--2-2-2-0-2----2--2-2-2-0-2----5--5-5-5-5--4--5--4--|
    *  * * * * *    *  * * * * *    *  * * * * *    *  * * * *  *  *  *

1    H
E|-12---------------------------------------------| H---------------------|
B|---------------------------------| H--------------7-------H-------------|
G|---------------------------------5----------------------7-------------|
D|----------------------------------------------------------------------|
A|----------------------------------------------------------------------|
E|----------------------------------------------------------------------|

2
E|----------------------------------------------------------------------|
B|----------------------------------------------------------------------|
G|----------------------------------------------------------------------|
D|----------------------------------------------------------------------|
A|----------------------------------------------------------------------|
E|-2--2-2-2-0-2----2--2-2-2-0-2----2--2-2-2-0-2----5--5-5-5-5--4--5--4--|
    *  * * * * *    *  * * * * *    *  * * * * *    *  * * * *  *  *  *




0:48

1
E|----------------------------------------------------------------------|
B|----------------------------------------------------------------------|
G|----------------------------------------------------------------------|
D|-9--9-9-9-7-9----9--9-9-9-7-9----9--9-9-9-7-9----9--9-9-9-7-9--7--7---|
A|-7--7-7-7-5-7----7--7-7-7-5-7----7--7-7-7-5-7----7--7-7-7-5-7--5--5---|
E|-9--9-9-9-7-9----9--9-9-9-7-9----9--9-9-9-7-9----9--9-9-9-7-9--7--7---|

2
E|----------------------------------------------------------------------|
B|----------------------------------------------------------------------|
G|----------------------------------------------------------------------|
D|----------------------------------------------------------------------|
A|-2--2-2-2-0-2----2--2-2-2-0-2----2--2-2-2-0-2----2--2-2-2-0-2--0--0---|
E|-2--2-2-2-0-2----2--2-2-2-0-2----2--2-2-2-0-2----2--2-2-2-0-2--0--0---|





0:55

1
E|------------------------------------------------------------------------------|
B|-----------------------8------8-----8-----12----12----12--8--8--8-----8-------|
G|-7--9--7--9--7--9--11-----11-----11----14----14----14--------------11----11---|
D|------------------------------------------------------------------------------|
A|------------------------------------------------------------------------------|
E|------------------------------------------------------------------------------|

2
E|------------------------------------------------------------------------------|
B|------------------------------------------------------------------------------|
G|------------------------------------------------------------------------------|
D|-5------------------7-------------------9-------------------------------------|
A|-3------------------5-------------------7-------------------------------------|
E|-5------------------7-------------------9-----------------5--4--2--4--2--0----|







1;00


E|---------------------------------------------------------------------------------------------|
B|---------------------------------------------------------------------------------------------|
G|---------------------------------------------------------------------------------------------|
D|------------------------5--5-5-5-5--7--7-7-7-7-------------------------5--5--5-5-------------|
A|-2--2-2-2-0-2--2-2-2-2--3--3-3-3-3--5--5-5-5-5--2--2-2-2-0-2--2-2-2-2--3--3--3-3--0--0--0-0--|
E|-2--2-2-2-0-2--2-2-2-2--------------------------2--2-2-2-0-2--2-2-2-2-------------0--0--0-0--|

E|---------------------------------------------------------------------------------------------|
B|---------------------------------------------------------------------------------------------|
G|---------------------------------------------------------------------------------------------|
D|------------------------5--5-5-5-5--7--7-7-7-7-------------------------5--5--5-5-------------|
A|-2--2-2-2-0-2--2-2-2-2--3--3-3-3-3--5--5-5-5-5--2--2-2-2-0-2--2-2-2-2--3--3--3-3--0--0--0-0--|
E|-2--2-2-2-0-2--2-2-2-2--------------------------2--2-2-2-0-2--2-2-2-2-------------0--0--0-0--|






1:14


E|------------------------------------------------------------------------------------------------------|
B|------------------------------------------------------------------------------------------------------|
G|------------------------------------------------------------------------------------------------------|
D|---------_------------------------_------------------------_----------------------_-------------_-----|
A|--------/| \-------------)--------/ \-------------)--------/ \--------------------/ \-----------/ \----|
E|-0-2-2-4-5-4-2-4-2-0-[19]-0-2-2-4-5-4-2-4-2-0-[19]-0-2-2-4-5-4-2-4-2-0----0-2-2-4-5-4-2-0-2-2-4-5-4-2-|
    * * *       * * * *      * * *       * * * *      * * *       * * * *    * * *       * * * *       *

E|----------------------------|
B|-8---8-7-----10---10-8------|
G|---9-----9-7----9------11-9-|
D|------------------------------------------------------------------------|----------------------------|
A|------------------------------------------------------------------------|----------------------------|
E|------------------------------------------------------------------------|----------------------------|
E|---------_------------------------_------------------------_------------| *            *
B|--------/| \-------------)--------/ \-------------)--------/ \-----------|----------------------------|
G|-0-2-2-4-5-4-2-4-2-0-[19]-0-2-2-4-5-4-2-4-2-0-[19]-0-2-2-4-5-4-2-4-2-0--|----------------------------|
    * * *       * * * *      * * *       * * * *      * * *       * * * *  |----------------------------|
E|-5------------7-------------|
B|-3------------5-------------|
G|----------------------------|

E|------------------------------------------------------------------------------|
B|------------------------------------------------------------------------------|
G|------------------------------------------------------------------------------|
D|------------------------------------------------------------------------------|
A|-2----------------------------------------------------------------------------|
E|-2----------------------------------------------------------------------------|





1:36


     H
E|-12---------------------------------------------| H---------------------|
B|---------------------------------| H--------------7-------H-------------|
G|---------------------------------5----------------------7-------------|
D|----------------------------------------------------------------------|
A|----------------------------------------------------------------------|
E|----------------------------------------------------------------------|

     H
E|-12---------------------------------------------| H---------------------|
B|---------------------------------| H--------------7-------H-------------|
G|---------------------------------5----------------------7-------------|
D|----------------------------------------------------------------------|
A|----------------------------------------------------------------------|
E|----------------------------------------------------------------------|




1:50


1
E|----------------------------------------------------------------------|
B|----------------------------------------------------------------------|
G|----------------------------------------------------------------------|
D|-9--9-9-9-7-9----9--9-9-9-7-9----9--9-9-9-7-9----9--9-9-9-7-9--7--7---|
A|-7--7-7-7-5-7----7--7-7-7-5-7----7--7-7-7-5-7----7--7-7-7-5-7--5--5---|
E|-9--9-9-9-7-9----9--9-9-9-7-9----9--9-9-9-7-9----9--9-9-9-7-9--7--7---|

2
E|----------------------------------------------------------------------|
B|----------------------------------------------------------------------|
G|----------------------------------------------------------------------|
D|----------------------------------------------------------------------|
A|-2--2-2-2-0-2----2--2-2-2-0-2----2--2-2-2-0-2----2--2-2-2-0-2--0--0---|
E|-2--2-2-2-0-2----2--2-2-2-0-2----2--2-2-2-0-2----2--2-2-2-0-2--0--0---|





1:58

1
E|------------------------------------------------------------------------------|
B|-----------------------8------8-----8-----12----12----12--8--8--8-----8-------|
G|-7--9--7--9--7--9--11-----11-----11----14----14----14--------------11----11---|
D|------------------------------------------------------------------------------|
A|------------------------------------------------------------------------------|
E|------------------------------------------------------------------------------|

2
E|------------------------------------------------------------------------------|
B|------------------------------------------------------------------------------|
G|------------------------------------------------------------------------------|
D|-5------------------7-------------------9-------------------------------------|
A|-3------------------5-------------------7-------------------------------------|
E|-5------------------7-------------------9-----------------5--4--2--4--2--0----|






2:05



E|---------------------------------------------------------------------------------------------|
B|---------------------------------------------------------------------------------------------|
G|---------------------------------------------------------------------------------------------|
D|------------------------5--5-5-5-5--7--7-7-7-7-------------------------5--5--5-5-------------|
A|-2--2-2-2-0-2--2-2-2-2--3--3-3-3-3--5--5-5-5-5--2--2-2-2-0-2--2-2-2-2--3--3--3-3--0--0--0-0--|
E|-2--2-2-2-0-2--2-2-2-2--------------------------2--2-2-2-0-2--2-2-2-2-------------0--0--0-0--|

E|---------------------------------------------------------------------------------------------|
B|------------------------------------------------------------------------8--8--8----8---------|
G|--------------------------------------------------------------------------------11----11-----|
D|------------------------5--5-5-5-5--7--7-7-7-7-----------------------------------------------|
A|-2--2-2-2-0-2--2-2-2-2--3--3-3-3-3--5--5-5-5-5--2--2-2-2-0-2--2-2-2-2------------------------|
E|-2--2-2-2-0-2--2-2-2-2--------------------------2--2-2-2-0-2--2-2-2-2------------------------|






2:20



E|-15--15--15----15-------|
B|------------19----19-17-|
G|------------------------|
D|1| |------------------------|
A|-------^-------------------------^------------------------^----------------|------------------------|
E|------8-7-----7-----------^-----8-7-----7--8-7-----^-----8-7-----7---------|------------------------|
E|-9-9-------9-----9--9-9--7-9-9-------9---------7--7-9-9-------9-----9--9-9-|
B|---------------------------------------------------------------------------|------------------------|
G|---------------------------------------------------------------------------|-8--8--8------8---------|
D|---------------------------------------------------------------------------|----------11-----11-----|
      *       *                  *      *                *       *            |------------------------|
E|------------------------|
B|------------------------|
    

2
E|----------------------------------------------------------------------------------------|
B|----------------------------------------------------------------------------------------|
G|----------------------------------------------------------------------------------------|
D|------------------------5--5-5-5-5--7--7--7-7-------------------------5--5--5-----------|
A|-2--2-2-2-2--2--2--2-2--3--3-3-3-3--5--5--5-5--2--2-2-2-2--2--2--2-2--3--3--3--0--0--0--|
E|-2--2-2-2-2--2--2--2-2-------------------------2--2-2-2-2--2--2--2-2-----------0--0--0--|

E|-15--15--15----15-------|
B|------------19----19-17-|
G|------------------------|
D|1| |------------------------|
A|-------^-------------------------^------------------------^----------------|------------------------|
E|------8-7-----7-----------^-----8-7-----7--8-7-----^-----8-7-----7---------|------------------------|
E|-9-9-------9-----9--9-9--7-9-9-------9---------7--7-9-9-------9-----9--9-9-|
B|---------------------------------------------------------------------------|------------------------|
G|---------------------------------------------------------------------------|-8--8--8------8---------|
D|---------------------------------------------------------------------------|----------11-----11-----|
      *       *                  *      *                *       *            |------------------------|
E|------------------------|
B|------------------------|
                                                                                  
2
E|----------------------------------------------------------------------------------------|
B|----------------------------------------------------------------------------------------|
G|----------------------------------------------------------------------------------------|
D|------------------------5--5-5-5-5--7--7--7-7-------------------------5--5--5-----------|
A|-2--2-2-2-2--2--2--2-2--3--3-3-3-3--5--5--5-5--2--2-2-2-2--2--2--2-2--3--3--3--0--0--0--|
E|-2--2-2-2-2--2--2--2-2-------------------------2--2-2-2-2--2--2--2-2-----------0--0--0--|





2:36


E|------------------------------------------------------------------------------------------------------|
B|------------------------------------------------------------------------------------------------------|
G|------------------------------------------------------------------------------------------------------|
D|---------_------------------------_------------------------_----------------------_-------------_-----|
A|--------/| \-------------)--------/ \-------------)--------/ \--------------------/ \-----------/ \----|
E|-0-2-2-4-5-4-2-4-2-0-[19]-0-2-2-4-5-4-2-4-2-0-[19]-0-2-2-4-5-4-2-4-2-0----0-2-2-4-5-4-2-0-2-2-4-5-4-2-|
    * * *       * * * *      * * *       * * * *      * * *       * * * *    * * *       * * * *       *

E|-----------------------------------------------------------------------------------------------|
B|-----------------------------------------------------------------------------------------------|
G|-----------------------------------------------------------------------------------------------|
D|---------_------------------------_------------------------_--------------------------2--------|
A|--------/| \-------------)--------/ \-------------)--------/ \-------------2-0-2-5-4-0-2--------|
E|-0-2-2-4-5-4-2-4-2-0-[19]-0-2-2-4-5-4-2-4-2-0-[19]-0-2-2-4-5-4-2-4-2-0----2-0-2-5-4-0-2--------|
    * * *       * * * *      * * *       * * * *      * * *       * * * *    * * * * * *





3:03



E|----------5--7-------------------------5--7-----7--8--5--|
B|-5-----8----------------------5-----8--------------------|
G|---------------------------------------------------------|
D|---------------------------------------------------------|
A|---------------------------------------------------------|
E|---------------------------------------------------------|

1
E|----------5--7-------------------------5--7------[7]---5---5-------|
B|-5-----8----------------------5-----8--------------------8---8-7---|
G|-------------------------------------------------------------------|
D|-------------------------------------------------------------------|
A|-------------------------------------------------------------------|
E|-------------------------------------------------------------------|

2
E|-------------------------------------------------------------------|
B|-------------------------------------------------------------------|
G|-------------------------------------------------------------------|
D|----------7--9-------------------------7--9------[9]---7----7------|
A|-7----10----------------------7----10--------------------10---10-9-|
E|-------------------------------------------------------------------|





3:17




1
          __                                              __
E|------/| \--------10----------8-----------------------/  \--------10----------8--------------|
B|-8-8-8-10-8----8------8-10-12----12-10-12-10----8-8--8-10-8-----8-----8-10-12----12--10--10~-|
G|------------11-------------------------------11-------------11-------------------------------|
D|---------------------------------------------------------------------------------------------|
A|---------------------------------------------------------------------------------------------|
E|---------------------------------------------------------------------------------------------|
     
2          _                                                _
E|-------/| \---------7-----------5------------------------/ \---------7-----------5-----------|
B|-5-5--5-7-5-----5-----5--7--8-----8--7--8--7------5-5--5-7-5-----5-----5--7--8-----8--7--7~-|
G|-------------7--------------------------------7---------------7-----------------------------|
D|--------------------------------------------------------------------------------------------|
A|--------------------------------------------------------------------------------------------|
E|--------------------------------------------------------------------------------------------|
       
3
E|---------------------------------------------------------------------------------------------|
B|---------------------------------------------------------------------------------------------|
G|---------------------------------------------------------------------------------------------|
D|-5----------------------7--------------------------9------------------------------7----------|
A|-3----------------------5--------------------------7------------------------------5----------|
E|---------------------------------------------------------------------------------------------|



1
           __                                              __
E|-------/| \--------10----------8-----------------------/  \--------10------|
B|-8-8--8-10-8----8------8-10-12----12-10-12-10----8-8--8-10-8-----8-----8---|
G|-------------11-------------------------------11--------------11-----------|
D|---------------------------------------------------------------------------|
A|---------------------------------------------------------------------------|
E|---------------------------------------------------------------------------|
     
2          _                                               _
E|-------/| \---------7-----------5-----------------------/ \---------7-----|
B|-5-5--5-7-5-----5-----5--7--8-----8--7--8--7-----5-5--5-7-5-----5-----5--|
G|-------------7--------------------------------7--------------7-----------|
D|-------------------------------------------------------------------------|
A|-------------------------------------------------------------------------|
E|-------------------------------------------------------------------------|
       
3
E|---------------------------------------------------------------------------|
B|---------------------------------------------------------------------------|
G|---------------------------------------------------------------------------|
D|-5----------------------7--------------------------------------------------|
A|-3----------------------5--------------------------2-----------------------|
E|---------------------------------------------------2-----------------------|







3:32


E|---------------------------------------------------------------------------------------------|
B|---------------------------------------------------------------------------------------------|
G|---------------------------------------------------------------------------------------------|
D|---------------------------------------------------------------------------------------------|
A|---------------------------------------------------------------------------------------------|
B |-2-0-2-5-2-0-2-0-2-5-2-0-2-0-2-5-2-0-2-0-2-5-2-0-2-0-2-5-2-0-2-0-2-5-2-0-2-0-2-5-2-0-2-5-2-0-|



E|---------------------------------------------------------------------------------------------|
B|---------------------------------------------------------------------------------------------|
G|---------------------------------------------------------------------------------------------|
D|---------------------------------------------------------------------------------------------|
A|---------------------------------------------------------------------------------------------|
B |-2-0-2-5-2-0-2-0-2-5-2-0-2-0-2-5-2-0-2-0-2-5-2-0-2-0-2-5-2-0-2-0-2-5-2-0-2-0-2-5-2-0-2-5-2-0-|
    * * * * * * * * * * * * * * * * * * * * * * * * * * * * * * 





3:48


E|---------------------------------------------------------------------------------------------|
B|---------------------------------------------------------------------------------------------|
G|---------------------------------------------------------------------------------------------|
D|------------------------5--5-5-5-5--7--7-7-7-7-------------------------5--5--5-5-------------|
A|-2--2-2-2-0-2--2-2-2-2--3--3-3-3-3--5--5-5-5-5--2--2-2-2-0-2--2-2-2-2--3--3--3-3--0--0--0-0--|
E|-2--2-2-2-0-2--2-2-2-2--------------------------2--2-2-2-0-2--2-2-2-2-------------0--0--0-0--|

E|---------------------------------------------------------------------------------------------|
B|------------------------------------------------------------------------8--8--8-----8--------|
G|---------------------------------------------------------------------------------11----11----|
D|------------------------5--5-5-5-5--7--7-7-7-7-----------------------------------------------|
A|-2--2-2-2-0-2--2-2-2-2--3--3-3-3-3--5--5-5-5-5--2--2-2-2-0-2--2-2-2-2------------------------|
E|-2--2-2-2-0-2--2-2-2-2--------------------------2--2-2-2-0-2--2-2-2-2------------------------|







4:00


E|-15--15--15----15-------|
B|------------19----19-17-|
G|------------------------|
D|1| |------------------------|
A|-------^-------------------------^------------------------^----------------|------------------------|
E|------8-7-----7-----------^-----8-7-----7--8-7-----^-----8-7-----7---------|------------------------|
E|-9-9-------9-----9--9-9--7-9-9-------9---------7--7-9-9-------9-----9--9-9-|
B|---------------------------------------------------------------------------|------------------------|
G|---------------------------------------------------------------------------|-8--8--8------8---------|
D|---------------------------------------------------------------------------|----------11-----11-----|
      *       *                  *      *                *       *            |------------------------|
E|------------------------|
B|------------------------|
                                                                                  
2
E|----------------------------------------------------------------------------------------|
B|----------------------------------------------------------------------------------------|
G|----------------------------------------------------------------------------------------|
D|------------------------5--5-5-5-5--7--7--7-7-------------------------5--5--5-----------|
A|-2--2-2-2-2--2--2--2-2--3--3-3-3-3--5--5--5-5--2--2-2-2-2--2--2--2-2--3--3--3--0--0--0--|
E|-2--2-2-2-2--2--2--2-2-------------------------2--2-2-2-2--2--2--2-2-----------0--0--0--|

1
E|---------^--------------------------------^--------------------------------^--------------------|
B|-------12-10----10---------------^------12-10----10--12--12-12----^------12-10----10------------|
G|-12-12-------12-----12--12-12--11-12-12-------12----------------11-12-12-------12-----12--12-12-|
D|------------------------------------------------------------------------------------------------|
A|------------------------------------------------------------------------------------------------|
E|------------------------------------------------------------------------------------------------|
        *                                *                                *





****************************************************
*=palm mute
///= Tremelo picked
ph=pinch harmonics
/=slide
 _
/ \, ^=HAMMER ON/PULLOFF
~=VIBRATO
),(,|= BEND,UNBEND,BENT
H=HARMONIC
****************************************************
00:00 / 00:00
Outros vídeos desta música
Repetir
Outros vídeos desta música
28 exibições
    • ½ Tom
    • A
    • Bb
    • B
    • C
    • Db
    • D
    • Eb
    • E
    • F
    • F#
    • G
    • Ab
  • Adicionar à lista

Afinação da cifra

Afinador online

    0 comentários

    Ver todos os comentários

    Entre para o Cifra Club PRO

    Tenha acesso a benefícios exclusivos no App e no Site

    • Chega de anúncios

    • Mais recursos no app do Afinador

    • Atendimento Prioritário

    • Aumente seu limite de lista

    • Ajude a produzir mais conteúdo

    00:00 / 00:00

    Cifra Club Pro

    Aproveite o Cifra Club com benefícios exclusivos e sem anúncios
    Cifra Club Pro
    Aproveite o Cifra Club com benefícios exclusivos e sem anúncios
    OK