Cifra Club

Aprenda

El Gavilán

Violeta Parra

Cifra: Principal (violão e guitarra)
tom: Am
E|-----------------------------------------------|
B|-3--3-3-5--5-7-/8--8-8-8-8-7-8-7--5------------|
G|-----------------------------------------------|
D|-----------------------------------------------|
A|-2--2-2-4--4-6-/7--7-7-7-7-6-7-6--4------------|
E|-----------------------------------------------|

E|-----------------------------------------------|
B|-3--3-3-5--5-7-/8--8-8-8-8-7-8-7--5------------|
G|-----------------------------------------------|
D|-----------------------------------------------|
A|-2--2-2-4--4-6-/7--7-7-7-7-6-7-6--4------------|
E|-----------------------------------------------|

E|-----------------------------------------------|
B|-(3)--2--2-2-3--5-7-/10--10-10-10-10-9-10--9---|
G|-----------------------------------------------|
D|-----------------------------------------------|
A|-(2)--0--0-0-2--4-6-/9---9--9--9--9--8-9---8---|
E|-----------------------------------------------|

E|-----------------------------------------------|
B|-10-10-9-10--9---10-10-9-10--/-3---------------|
G|-----------------------------------------------|
D|-----------------------------------------------|
A|-9--9--8-9---8---9--9--8-9---/2----------------|
E|-----------------------------------------------|

E|-----------------------------------------------|
B|--2--2-2-3--5-/7---10-10-10-10-9-10-9--7-------|
G|-----------------------------------------------|
D|-----------------------------------------------|
A|--0--0-0-2--4-/6---9--9--9--9--8-9--8--6-------|
E|-----------------------------------------------|

Mi vida yo te qui, yo te quise veleidoso

E|-----------------------------------------------|
B|-3--3-3-5--5-/7---8-8-8-8-7-8-7--5-------------|
G|-----------------------------------------------|
D|-----------------------------------------------|
A|-2--2-2-4--4-/6---7-7-7-7-6-7-6--4-------------|
E|-----------------------------------------------|

Mi vida creyendo, creyéndote lisonjero

E|-----------------------------------------------|
B|-3--3-3-5--5-/7---8-8-8-8-7-8-7--5-------------|
G|-----------------------------------------------|
D|-----------------------------------------------|
A|-2--2-2-4--4-/6---7-7-7-7-6-7-6--4-------------|
E|-----------------------------------------------|

Mi vida creyendo, creyéndote lisonjero

E|-----------------------------------------------|
B|--2--2-2-3--5-/7---10-10-10-10-9-10-9--7-------|
G|-----------------------------------------------|
D|-----------------------------------------------|
A|--0--0-0-2--4-/6---9--9--9--9--8-9--8--6-------|
E|-----------------------------------------------|

Mi vida se me par, se me parte el corazón

E|-----------------------------------------------|
B|-3--3-3-5--5-/7---8-8-8-8-7-8-7--5-------------|
G|-----------------------------------------------|
D|-----------------------------------------------|
A|-2--2-2-4--4-/6---7-7-7-7-6-7-6--4-------------|
E|-----------------------------------------------|

Mi vida de verte, de verte tan embustero

E|-----------------------------------------------|
B|-3--3-3-5--5-/7---10-10-10-10-10-9-10--9-------|
G|-----------------------------------------------|
D|-----------------------------------------------|
A|-2--2-2-4--4-/6---9--9--9--9--9--8-9---8-------|
E|-----------------------------------------------|

Mi vida yo te qui, yo te quise yo te quise

E|-----------------------------------------------|
B|-10-10-9-10--9---10-10-9-10---/-3--------------|
G|-----------------------------------------------|
D|-----------------------------------------------|
A|-9--9--8-9---8---9--9--8-9----/2---------------|
E|-----------------------------------------------|

:/B , ay ay ay/:

E|-----------------------------------------------|
B|------7-----7-----7/3-----3-----3/7------------|
G|-----------------------------------------------|
D|-----------------------------------------------|
A|--6-6---6-6---6-6-----2-2---2-2----------------|
E|-----------------------------------------------|

E|-----------------------------------------------|
B|------7-----7-----7/3-----3-----3/6------------|
G|-----------------------------------------------|
D|-----------------------------------------------|
A|--6-6---6-6---6-6-----2-2---2-2----------------|
E|-----------------------------------------------|

E|-----------------------------------------------|
B|------6-----6-----6/2-----2-----2/6------------|
G|-----------------------------------------------|
D|-----------------------------------------------|
A|--5-5---5-5---5-5-----1-1---1-1----------------|
E|-----------------------------------------------|

E|-----------------------------------------------|
B|------6-----6-----6/2-----2-----2/7------------|
G|-----------------------------------------------|
D|-----------------------------------------------|
A|--5-5---5-5---5-5-----1-1---1-1----------------|
E|-----------------------------------------------|

E|-----------------------------------------------|
B|------7-----7-----7/3-----3-----3/7------------|
G|-----------------------------------------------|
D|-----------------------------------------------|
A|--6-6---6-6---6-6-----2-2---2-2----------------|
E|-----------------------------------------------|

Mi vida, mi vida yo te quise

E|-----------------------------------------------|
B|------7-----7-----7/3-----3-----3/6------------|
G|-----------------------------------------------|
D|-----------------------------------------------|
A|--6-6---6-6---6-6-----2-2---2-2----------------|
E|-----------------------------------------------|

Mi vida, mi vida yo te quise

E|-----------------------------------------------|
B|------6-----6-----6/2-----2-----2/6------------|
G|-----------------------------------------------|
D|-----------------------------------------------|
A|--5-5---5-5---5-5-----1-1---1-1----------------|
E|-----------------------------------------------|

Veleido, veleido, veleidoso

E|-----------------------------------------------|
B|------6-----6-----6/2-----2-----2/7------------|
G|-----------------------------------------------|
D|-----------------------------------------------|
A|--5-5---5-5---5-5-----1-1---1-1----------------|
E|-----------------------------------------------|

Veleido, veleido, veleidoso

E|-----------------------------------------------|
B|-----7-----7-----7-----7-----7-----7-----7-----|
G|-----------------------------------------------|
D|-----------------------------------------------|
A|-6-6---6-6---6-6---6-6---6-6---6-6---6-6-------|
E|-----------------------------------------------|

Mi vida, mi vida. Yo te qui, yo qui

E|-----------------------------------------------|
B|------7-----6-----5-----4-----3--2-------------|
G|-----------------------------------------------|
D|-----------------------------------------------|
A|--6-6---5-5---4-4---3-3---2-2----1-------------|
E|-----------------------------------------------|

Yo te qui, yo te qui, yo te qui, yo te qui, yo te quise

E|--------------------------------------------------------|
B|------5-----5-----5/2-----2-----2/5-----5-----5-----5/7-|
G|--------------------------------------------------------|
D|--------------------------------------------------------|
A|--4-4---4-4---4-4-----1-1---1-1-----4-4---4-4---4-4-----|
E|--------------------------------------------------------|

Veleido, veleido, veleido, veleidoso, veleidoso

E|-----------------------------------------------|
B|-----7------7-----6-----5-----4-----3--2-------|
G|-----------------------------------------------|
D|-----------------------------------------------|
A|-6-6----6-6---5-5---4-4---3-3---2-2----1-------|
E|-----------------------------------------------|

Yo te qui, yo te qui, yo te qui, yo te qui,
Yo te qui, yo te quise

E|-------0-----0--7-----------0-----0--7---------|
B|------6-----6-----6--------6-----6-----6-------|
G|-----7-----7--------7-----7-----7--------7-----|
D|----7-----7--------------7-----7---------------|
A|---0-----0-----0--------0-----0-----0----------|
E|-----------------------------------------------|

E|-------0-----0----3---------0-----0----3-------|
B|------4-----4-------4------4-----4-------4-----|
G|-----5-----5----5---------5-----5----5---------|
D|----5-----5--------------5-----5---------------|
A|---0-----0-----0--------0-----0-----0----------|
E|-----------------------------------------------|

E|-------0-----0--7-----------0-----0--7---------|
B|------6-----6-----6--------6-----6-----6-------|
G|-----7-----7--------7-----7-----7--------7-----|
D|----7-----7--------------7-----7---------------|
A|---0-----0-----0--------0-----0-----0----------|
E|-----------------------------------------------|

Te la llevaris, te la llevaris, mentiroso
Te la llevaris, te la llevaris, pretencioso

E|-------0-----0----3---------0-----0----3-------|
B|------4-----4-------4------4-----4-------4-----|
G|-----5-----5----5---------5-----5----5---------|
D|----5-----5--------------5-----5---------------|
A|---0-----0-----0--------0-----0-----0----------|
E|-----------------------------------------------|

Te la llevaris, te la llevaris, fastidioso
Te la llevaris, te la llevaris, mentiroso

E|-----------------------------------------------|
B|--6--6--5-6--5-----6--6--5-6--5----------------|
G|--7--7--6-7--6-----7--7--6-7--6----------------|
D|-----------------------------------------------|
A|-----------------------------------------------|
E|-----------------------------------------------|

Prenda del alma... Si ay ay ay

E|-----------------------------------------------|
B|--6---6-6---6-5---5-5---5-6---6-6---6-5---5-5--|
G|--7--7--7---7-6--6--6---6-7--7--7---7-6--6--6--|
D|-----------------------------------------------|
A|----0-----0-----0-----0-----0-----0-----0------|
E|-----------------------------------------------|

Prenda del alma... Si ay ay ay

E|-------0-----0--7-----------0-----0--7---------|
B|------6-----6-----6--------6-----6-----6-------|
G|-----7-----7--------7-----7-----7--------7-----|
D|----7-----7--------------7-----7---------------|
A|---0-----0-----0--------0-----0-----0----------|
E|-----------------------------------------------|

Tiquitiquití tiquitiquití mentiroso
Tiquitiquití tiquitiquití mentiroso

E|-------0-----7-----0-----7-----0-----7---------|
B|------6-----6-----6-----6-----6-----6----------|
G|-----7-----7-----7-----7-----7-----7-----------|
D|----7-----7-----7-----7-----7-----7------------|
A|---0-----0-----0-----0-----0-----0-------------|
E|-----------------------------------------------|

Tiquitiquití tiquitiquití tiquitiquití
Tiquitiquití tiquitiquití tiquitiquití

E|------7----------------7------7------|
B|----6---6----6----6---------6---6----|
G|--7--------7----7----7----7----------|
D|-------------------------------------|
A|-------------------------------------|
E|-------------------------------------|

Mentiroso, mentí, mentí, mentí, mentiroso

E|----------------------------------------------|
B|---2--2-2-3--5-7-7/10--10-10-10-10-9-10-9--7--|
G|----------------------------------------------|
D|----------------------------------------------|
A|---0--0-0-2--4-6-6/9---9--9--9--9--8-9--8--6--|
E|----------------------------------------------|

E|----------------------------------------------|
B|-3--3-3-5--5-/7---8-8-8-8-7-8-7--5------------|
G|----------------------------------------------|
D|----------------------------------------------|
A|-2--2-2-4--4-/6---7-7-7-7-6-7-6--4------------|
E|----------------------------------------------|

Mi vida creyendo, creyéndote lisonjero

E|----------------------------------------------|
B|---2--2-2-3--5-7-7/10--10-10-10-10-9-10-9--7--|
G|----------------------------------------------|
D|----------------------------------------------|
A|---0--0-0-2--4-6-6/9---9--9--9--9--8-9--8--6--|
E|----------------------------------------------|

E|----------------------------------------------|
B|-3--3-3-5--5-/7---8-8-8-8-7-8-7--5------------|
G|----------------------------------------------|
D|----------------------------------------------|
A|-2--2-2-4--4-/6---7-7-7-7-6-7-6--4------------|
E|----------------------------------------------|

Mi vida de verte, de verte tan embustero

E|-----------------------------------------------|
B|-3--3-3-5--5-7-/10--10-10-10-10-9-10--9--------|
G|-----------------------------------------------|
D|-----------------------------------------------|
A|-2--2-2-4--4-6-/9---9--9--9--9--8-9---8--------|
E|-----------------------------------------------|

E|-----------------------------------------------|
B|-10-10-9-10--9---10-10-9-10---/-3--------------|
G|-----------------------------------------------|
D|-----------------------------------------------|
A|-9--9--8-9---8---9--9--8-9----/2---------------|
E|-----------------------------------------------|

:/B , ay ay ay/:

E|-----------------------------------------------|
B|------6-----6-----6/2-----2-----2/5------------|
G|-----------------------------------------------|
D|-----------------------------------------------|
A|--5-5---5-5---5-5-----1-1---1-1----------------|
E|-----------------------------------------------|

Mi vida, mi vida yo te quise

E|-----------------------------------------------|
B|------5-----5-----5/2-----2-----2-----2~-------|
G|-----------------------------------------------|
D|-----------------------------------------------|
A|--4-4---4-4---4-4-----1-1---1-1---1-1----------|
E|-----------------------------------------------|

Veleido, veleido, veleidoso

E|-------0-----0--7-----------0-----0--x---------|
B|------6-----6-----6--------6-----6-----6-------|
G|-----7-----7--------7-----7-----7--------7-----|
D|----7-----7--------------7-----7---------------|
A|---0-----0-----0--------0-----0-----x----------|
E|-----------------------------------------------|

E|-------0-----7-----0-----7-----0-----7---------|
B|------6-----6-----6-----6-----6-----6----------|
G|-----7-----7-----7-----7-----7-----7-----------|
D|----7-----7-----7-----7-----7-----7------------|
A|---0-----0-----0-----0-----0-----0-------------|
E|-----------------------------------------------|

E|------7-------------7-----7------|
B|----6---6---6---6-------6---6----|
G|--7-------7---7---7---7----------|
D|---------------------------------|
A|---------------------------------|
E|---------------------------------|

E|-------0-----0--7-----------0-----0--7---------|
B|------6-----6-----6--------6-----6-----6-------|
G|-----7-----7--------7-----7-----7--------7-----|
D|----7-----7--------------7-----7---------------|
A|---0-----0-----0--------0-----0-----0----------|
E|-----------------------------------------------|

Tiquitiquití tiquitiquití mentiroso
Tiquitiquití tiquitiquití mentiroso

E|-------0-----0----3---------0-----0----3-------|
B|------4-----4-------4------4-----4-------4-----|
G|-----5-----5----5---------5-----5----5---------|
D|----5-----5--------------5-----5---------------|
A|---0-----0-----0--------0-----0-----0----------|
E|-----------------------------------------------|

Tiquitiquití tiquitiquití fastidioso
Tiquitiquití tiquitiquití veleidoso

E|-----------------------------------------------|
B|--6--6--5-6--5-----6--6--5-6--5----------------|
G|--7--7--6-7--6-----7--7--6-7--6----------------|
D|-----------------------------------------------|
A|-----------------------------------------------|
E|-----------------------------------------------|

Prenda del alma... Si ay ay ay

E|-----------------------------------------------|
B|--6---6-6---6-5---5-5---5-6---6-6---6-5---5-5--|
G|--7--7--7---7-6--6--6---6-7--7--7---7-6--6--6--|
D|-----------------------------------------------|
A|----0-----0-----0-----0-----0-----0-----0------|
E|-----------------------------------------------|

Prenda del alma... Si ay ay ay

E|------0-----0--7---------0-----7-----0-----7-----0-----7--|
B|-----6-----6-----6------6-----6-----6-----6-----6-----6---|
G|----7-----7--------7---7-----7-----7-----7-----7-----7----|
D|---7-----7------------7-----7-----7-----7-----7-----7-----|
A|--0-----0-----0------0-----0-----0-----0-----0-----0------|
E|----------------------------------------------------------|

Tiquitiquití tiquitiquití mentiroso :/Tiquitiquití tiquitiquití tiquitiquití/:

E|------7----------------7------7------|
B|----6---6----6----6---------6---6----|
G|--7--------7----7----7----7----------|
D|-------------------------------------|
A|-------------------------------------|
E|-------------------------------------|

Mentiroso, mentí, mentí, mentí, mentiroso

E|------------------------------------------------|
B|------6-----8----10-10-------6-----8----10-10---|
G|----5-----7-----9---9------5-----7-----9---9----|
D|------------------------------------------------|
A|------------------------------------------------|
E|--0-----0-----0-----0----0-----0-----0-----0----|

E|------7------9----------------7------9-----------|
B|----8-----10------10-8------8-----10------10-8---|
G|-----------------9---7-------------------9---7---|
D|-------------------------------------------------|
A|-------------------------------------------------|
E|--0-----0------0-----0----0-----0------0-----0---|

E|----------------------------------------------------|
B|-----10-8---8-8~-8-8-8-8/10--10---8-8~-8-8-/10------|
G|----9---7---7-7~-7-7-7-7/9----9---7-7~-7-7-/9-------|
D|----------------------------------------------------|
A|----------------------------------------------------|
E|--0-----0---------------------0---------------------|

E|------------------------------------------------|
B|------6-----8----10-10-------6-----8----10-10---|
G|----5-----7-----9---9------5-----7-----9---9----|
D|------------------------------------------------|
A|------------------------------------------------|
E|--0-----0-----0-----0----0-----0-----0-----0----|

¿Dónde estás prenda querida, que no escuchas mi lamento?

E|------7------9----------------7------9-----------|
B|----8-----10------10-8------8-----10------10-8---|
G|-----------------9---7-------------------9---7---|
D|-------------------------------------------------|
A|-------------------------------------------------|
E|--0-----0------0-----0----0-----0------0-----0---|

Tal vez te habrás olvidado, que hiciste un juramento

E|----------------------------------------------------|
B|-----10-8---8-8~-8-8-8-8/10--10---8-8~-8-8-/10------|
G|----9---7---7-7~-7-7-7-7/9----9---7-7~-7-7-/9-------|
D|----------------------------------------------------|
A|----------------------------------------------------|
E|--0-----0---------------------0---------------------|

Juramento, mento. Juramento sí...

E|------------------------------------------------|
B|------6-----8----10-10-------6-----8----10-10---|
G|----5-----7-----9---9------5-----7-----9---9----|
D|------------------------------------------------|
A|------------------------------------------------|
E|--0-----0-----0-----0----0-----0-----0-----0----|

En qué quedó tu palabra, ingrato mal avenido

E|------7------9----------------7------9-----------|
B|----8-----10------10-8------8-----10------10-8---|
G|-----------------9---7-------------------9---7---|
D|-------------------------------------------------|
A|-------------------------------------------------|
E|--0-----0------0-----0----0-----0------0-----0---|

¿Por qué habré puesto los ojos, en amor tan dividido?

E|----------------------------------------------------|
B|-----10-8---8-8~-8-8-8-8/10--10---8-8~-8-8-/10------|
G|----9---7---7-7~-7-7-7-7/9----9---7-7~-7-7-/9-------|
D|----------------------------------------------------|
A|----------------------------------------------------|
E|--0-----0---------------------0---------------------|

Dividido, dido. Dividido, sí...

E|------------------------|
B|------3---3-5---5-5/3---|
G|----3---3---5-5---5/3---|
D|------------------------|
A|------------------------|
E|--0---------------------|

E|--------------------------------------------------|
B|--3-3-3-3-3-3/5-5-5-5/3---3-3-3-3-3-3/5-5-5-5/3---|
G|--3-3-3-3-3-3/5-5-5-5/3---3-3-3-3-3-3/5-5-5-5/3---|
D|--------------------------------------------------|
A|--------------------------------------------------|
E|--------------------------------------------------|

Tanto que me decía la gente, gavilán, gavilán tiene garras

E|----------------------------------------------------------|
B|--7-7-7-7-7-7/10-10-10-10/7---7-7-7-7-7-7/10-10-10-10/7---|
G|--7-7-7-7-7-7/10-10-10-10/7---7-7-7-7-7-7/10-10-10-10/7---|
D|----------------------------------------------------------|
A|----------------------------------------------------------|
E|----------------------------------------------------------|

Yo sola seguí monte arriba, gavilán me sacó las entrañas

E|----------------------------------------------------|
B|--3-3-3-3-3-3/5-5-5-3--1---3-3-3-3-3-3/5-5-5-3--1---|
G|--3-3-3-3-3-3/5-5-5-3--1---3-3-3-3-3-3/5-5-5-3--1---|
D|----------------------------------------------------|
A|----------------------------------------------------|
E|----------------------------------------------------|

En el monte quedé abandonada, me confunden los siete elementos

E|-------0------0------0------0---|
B|-----3------3------3------3-----|
G|---3------3------3------3-------|
D|--------------------------------|
A|--------------------------------|
E|--------------------------------|

:/Ay de mí, ay de mí/:

E|----------------------------------------------------|
B|--3-3-3-3-3-3/5-5-5-5/3---3-3-3-3-3-3/5-5-5-3--1----|
G|--3-3-3-3-3-3/5-5-5-5/3---3-3-3-3-3-3/5-5-5-3--1----|
D|----------------------------------------------------|
A|----------------------------------------------------|
E|----------------------------------------------------|

De mi llanto se espantan las sombras, mis gemidos confunden al viento

E|-------0------0------0------0---|
B|-----3------3------3------3-----|
G|---3------3------3------3-------|
D|--------------------------------|
A|--------------------------------|
E|--------------------------------|

:/Ay de mí, ay de mí/:

E|---------------2----------------------2----------|
B|-----0---2---0-0--2-2-2-----0---2---0-0--2-2-2---|
G|---0---2---0---0--2-2-2---0---2---0---0--2-2-2---|
D|-------------------------------------------------|
A|-------------------------------------------------|
E|---------------0----------------------0----------|

E|-----------------------------------------------------------|
B|-------------x---2-------------2--------------0-2/3--3-----|
G|---0---2---0-x-0-----0---2---0-0--------0-2/3-0-2/3--3--2--|
D|-0---2---0---------0---2---0------0-2/3-0-2/3-----------2--|
A|----------------------------------0-2/3--------------------|
E|-----------------------------------------------------------|

E|---------------2----------------------2----------|
B|-----0---2---0-0--2-2-2-----0---2---0-0--2-2-2---|
G|---0---2---0---0--2-2-2---0---2---0---0--2-2-2---|
D|-------------------------------------------------|
A|-------------------------------------------------|
E|---------------0----------------------0----------|

:/Gavi, gavi, gavi, ga vilán, ga/:

E|-----------------------------------------------------------|
B|--------------2---------------2---------------0-2/3--3-----|
G|----0---2---0-0-----0---2---0-0---------0-2/3-0-2/3--3--2--|
D|--0---2---0-------0---2---0-------0-2/3-0-2/3-----------2--|
A|----------------------------------0-2/3--------------------|
E|-----------------------------------------------------------|

:/Gavi, gavi, gavi, ga/: Gavilán, gavilán, gavilán, ga vi

E|---------------2----------------------2----------|
B|-----0---2---0-0--2-2-2-----0---2---0-0--2-2-2---|
G|---0---2---0---0--2-2-2---0---2---0---0--2-2-2---|
D|-------------------------------------------------|
A|-------------------------------------------------|
E|---------------0----------------------0----------|

:/Gavi, gavi, gavi, ga vilán, ga/:

E|-----------------------------------------------------------|
B|--------------2---------------2---------------0-2/3--3-----|
G|----0---2---0-0-----0---2---0-0---------0-2/3-0-2/3--3--2--|
D|--0---2---0-------0---2---0-------0-2/3-0-2/3-----------2--|
A|----------------------------------0-2/3--------------------|
E|-----------------------------------------------------------|

:/Gavi, gavi, gavi, ga/: Gavilán, gavilán, gavilán, ga vi

E|-----------------------------------------|
B|---------3-2----------------3-2----------|
G|---0-2-0-3-2-0-2-3----0-2-0-3-2-0-2-3----|
D|--0-2-0------0-2-3---0-2-0------0-2-3----|
A|-----------------------------------------|
E|-----------------------------------------|

E|---------3-2----------------3-2----------|
B|---0-2-0-3-2-0-2-3----0-2-0-3-2-0-2-3----|
G|--0-2-0------0-2-3---0-2-0------0-2-3----|
D|-----------------------------------------|
A|-----------------------------------------|
E|-----------------------------------------|

E|-----------------------------------------|
B|-----------------------------------------|
G|---------3-2----------------3-2----------|
D|---0-2-0-3-2-0-2-3----0-2-0-3-2-0-2-3----|
A|--0-2-0------0-2-3---0-2-0------0-2-3----|
E|-----------------------------------------|

E|------------------|-------------------------------------|
B|--------3-2-------|--------3-2---------------3-2--------|
G|--0-2-0-3-2-0-2-3-|--0-2-0-3-2-0-2-3---0-2-0-3-2-0-2-3--|
D|-0-2-0------0-2-3-|-0-2-0------0-2-3--0-2-0------0-2-3--|
A|------------------|-------------------------------------|
E|------------------|-------------------------------------|

                 :/Viene, viene, viene, viene el gavilán/:

E|-----------------------------------------|
B|-----------------------------------------|
G|---------3-2----------------3-2----------|
D|---0-2-0-3-2-0-2-3----0-2-0-3-2-0-2-3----|
A|--0-2-0------0-2-3---0-2-0------0-2-3----|
E|-----------------------------------------|

:/Truenos suenan ya/:

E|---------3-2----------------3-2----------|
B|---0-2-0-3-2-0-2-3----0-2-0-3-2-0-2-3----|
G|--0-2-0------0-2-3---0-2-0------0-2-3----|
D|-----------------------------------------|
A|-----------------------------------------|
E|-----------------------------------------|

Tengo donde estar. Viene, viene, yo no tengo donde estar.

E|----3-2-------------------3-2----------|
B|--0-3-2-0-2-3-----------0-3-2-0-2-3----|
G|--0-----0-2-3----0-0----0-----0-2-3----|
D|-----------------3-3-------------------|
A|-----------------4-4-------------------|
E|-----------------3-3-------------------|

:/Yo no tengo donde estar/:

  G5  -7  C5 -7   E5 -6

E|-------|-------|-------|
B|-------|-------|---2---|
G|-------|---3---|---3---|
D|---3---|---4---|---2---|
A|---4---|---3---|-------|
E|---3---|-------|-------|

Sol5-7 Do5-7 Mi5-6 Sol5-7

G5  -7
:/Gavilán, gavilán, que me muero gavilán:/
C5 -7
:/Gavilán, gavilán, que me muero gavilán:/
E5 -6
:/Gavilán, gavilán, que me muero gavilán:/
              C5 -7                 G5  -7
Gavi gavilán, que me muero gavilán, que me muero gavilán

Gavilán, gavilán, gavi gavi lán, gavi gavi lán,

Gavi gavi lán, gavi gavi lán, gavilán, gavilán, gavilán...

:/Gavilán, gavilán, que me muero gavilán:/
C5 -7
:/Gavilán, gavilán, que me muero gavilán:/
E5 -6
:/Gavilán, gavilán, gavi:/

Gavi, gavi, gavi, gavi...

E|--------------------------------------------------|
B|--3-3-3-3-3-3/5-5-5-5/3---3-3-3-3-3-3/5-5-5-5/3---|
G|--3-3-3-3-3-3/5-5-5-5/3---3-3-3-3-3-3/5-5-5-5/3---|
D|--------------------------------------------------|
A|--------------------------------------------------|
E|--------------------------------------------------|

Tanto que me decía la gente, gavilán, gavilán tiene garras

E|----------------------------------------------------------|
B|--7-7-7-7-7-7/10-10-10-10/7---7-7-7-7-7-7/10-10-10-10/7---|
G|--7-7-7-7-7-7/10-10-10-10/7---7-7-7-7-7-7/10-10-10-10/7---|
D|----------------------------------------------------------|
A|----------------------------------------------------------|
E|----------------------------------------------------------|

Yo sola seguí monte arriba, gavilán me sacó las entrañas

E|----------------------------------------------------|
B|--3-3-3-3-3-3/5-5-5-3--1---3-3-3-3-3-3/5-5-5-3--1---|
G|--3-3-3-3-3-3/5-5-5-3--1---3-3-3-3-3-3/5-5-5-3--1---|
D|----------------------------------------------------|
A|----------------------------------------------------|
E|----------------------------------------------------|

En el monte quedé abandonada, me confunden los siete elementos

E|-------0------0------0------0---|
B|-----3------3------3------3-----|
G|---3------3------3------3-------|
D|--------------------------------|
A|--------------------------------|
E|--------------------------------|

:/Ay de mí, ay de mí/:

E|-------0-----0--7-----------0-----0--7---------|
B|------6-----6-----6--------6-----6-----6-------|
G|-----7-----7--------7-----7-----7--------7-----|
D|----7-----7--------------7-----7---------------|
A|---0-----0-----0--------0-----0-----0----------|
E|-----------------------------------------------|

E|-------0-----0----3---------0-----0----3-------|
B|------4-----4-------4------4-----4-------4-----|
G|-----5-----5----5---------5-----5----5---------|
D|----5-----5--------------5-----5---------------|
A|---0-----0-----0--------0-----0-----0----------|
E|-----------------------------------------------|

E|-------0-----0--7-----------0-----0--7---------|
B|------6-----6-----6--------6-----6-----6-------|
G|-----7-----7--------7-----7-----7--------7-----|
D|----7-----7--------------7-----7---------------|
A|---0-----0-----0--------0-----0-----0----------|
E|-----------------------------------------------|

Tiquitiquití tiquitiquití mentiroso
Tiquitiquití tiquitiquití veleidoso

E|-------0-----7-----0-----7-----0-----7---------|
B|------6-----6-----6-----6-----6-----6----------|
G|-----7-----7-----7-----7-----7-----7-----------|
D|----7-----7-----7-----7-----7-----7------------|
A|---0-----0-----0-----0-----0-----0-------------|
E|-----------------------------------------------|

:/Tiquitiquití tiquitiquití tiquitiquití/:

E|------7----------------7------7------|
B|----6---6----6----6---------6---6----|
G|--7--------7----7----7----7----------|
D|-------------------------------------|
A|-------------------------------------|
E|-------------------------------------|

Mentiroso, mentí, mentí, mentí, mentiroso

E|--------------2------------3-2----------|
B|----0---2---0-0--0-2-3---0-3-2-0-2-3~---|
G|--0---2---0---0--0-2-3---0-----0-2-3~---|
D|----------------------------------------|
A|----------------------------------------|
E|--------------0-------------------------|

            ...donde estar. Yo no tengo donde estar.

G5  -7 C5 -7 E5 -6
Composição de Violeta Parra
19 exibições
    • ½ Tom
    • Am
    • Bbm
    • Bm
    • Cm
    • C#m
    • Dm
    • Ebm
    • Em
    • Fm
    • F#m
    • Gm
    • G#m
  • Adicionar à lista

    0 comentários

    Ver todos os comentários

    Conseguiu tocar?

    0 Tocaram 0 Ainda não

    Grave um vídeo tocando El Gavilán e nos envie!

    00:00 / 00:00
    Outros vídeos desta música
    Repetir Qualidade Automático
    Outros vídeos desta música
    00:00 / 00:00
    Automático

    Cifra Club Pro

    Aproveite o Cifra Club com benefícios exclusivos e sem anúncios
    Cifra Club Pro
    Aproveite o Cifra Club com benefícios exclusivos e sem anúncios
    OK