Cifra Club

Sometimes Its Something Sometimes Its Nothing At All

Passenger

Cifra: Principal (violão e guitarra)
Selo Cifra Club: esta cifra foi revisada para atender aos critérios oficiais da nossa Equipe de Qualidade.
tom: C
E|-------0-------0-----------------------------------------------------------|
B|-----------1--------------1------------------------------------------------|
G|-----0-------0------0---------0--------------------------------------------|
D|---3-----2----------0h2-----2----------------------------------------------|
A|-----------------3------3--------------------------------------------------| x4
E|---------------------------------------------------------------------------|


[Verse 1]

E|-------0-------0-----------------------------------------------------------|
B|-----------1--------------1------------------------------------------------|
G|-----0-------0------0---------0--------------------------------------------|
D|---3-----2----------0h2-----2----------------------------------------------| x4
A|-----------------3------3--------------------------------------------------|
E|---------------------------------------------------------------------------|


[Chorus] x2

E|---------------------------------------------------------------------------|
B|-----1-------1-----1--------1----1---------1----1---------1----------------|
G|---------0--------------0-------------0---------------0--------------------|
D|-----3-----3-------3------3------0------0-------0-------0------------------|
A|---------------------------------------------------------------------------|
E|---1---1---------1----1--------3---3---------3-----3-----------------------|

E|---------------------------------------------------------------------------|
B|------1-----------1-----1----------1-----1----------1-----1-----------1----|
G|--------------0---------------0----------------0----------------0----------|
D|------0h2-------2-------2-------2--------2-------2--------2--------2-------|
A|---3-------3---------3-----3----------3-----3----------3-----3-------------|
E|---------------------------------------------------------------------------|


[Verse 2]

E|-------0-------0-----------------------------------------------------------|
B|-----------1--------------1------------------------------------------------|
G|-----0-------0------0---------0--------------------------------------------|
D|---3-----2----------0h2-----2----------------------------------------------| x4
A|-----------------3------3--------------------------------------------------|
E|---------------------------------------------------------------------------|


[Chorus]  x2

E|---------------------------------------------------------------------------|
B|-----1-------1-----1--------1----1---------1----1---------1----------------|
G|---------0--------------0-------------0---------------0--------------------|
D|-----3-----3-------3------3------0------0-------0-------0------------------|
A|---------------------------------------------------------------------------|
E|---1---1---------1----1--------3---3---------3-----3-----------------------|

E|---------------------------------------------------------------------------|
B|------1-----------1-----1----------1-----1----------1-----1-----------1----|
G|--------------0---------------0----------------0----------------0----------|
D|------0h2-------2-------2-------2--------2-------2--------2--------2-------|
A|---3-------3---------3-----3----------3-----3----------3-----3-------------|
E|---------------------------------------------------------------------------|


[Solo]

Strings
E|-------0-------0-----------------------------------------------------------|
B|-----------1--------------1------------------------------------------------|
G|-----0-------0------0---------0--------------------------------------------|
D|---3-----2----------0h2-----2----------------------------------------------| x4
A|-----------------3------3--------------------------------------------------|
E|---------------------------------------------------------------------------|

E|---------------------------------------------------------------------------|
B|-----1-------1-----1--------1----1---------1----1---------1----------------|
G|---------0--------------0-------------0---------------0--------------------|
D|-----3-----3-------3------3------0------0-------0-------0------------------|
A|---------------------------------------------------------------------------|
E|---1---1---------1----1--------3---3---------3-----3-----------------------|

E|---------------------------------------------------------------------------|
B|------1-----------1-----1----------1-----1----------1-----1-----------1----|
G|--------------0---------------0----------------0----------------0----------|
D|------0h2-------2-------2-------2--------2-------2--------2--------2-------|
A|---3-------3---------3-----3----------3-----3----------3-----3-------------|
E|---------------------------------------------------------------------------|


[Outro]

E|---------------------------------------------------------------------------|
B|-----1-------1-----1--------1----1---------1----1---------1----------------|
G|---------0--------------0-------------0---------------0--------------------|
D|-----3-----3-------3------3------0------0-------0-------0------------------|
A|---------------------------------------------------------------------------|
E|---1---1---------1----1--------3---3---------3-----3-----------------------|

E|---------------------------------------------------------------------------|
B|------1-----------1-----1----------1-----1----------1-----1-----------1----|
G|--------------2---------------2----------------0----------------0----------|
D|------2---------2-------2-------2--------2-------2--------2--------2-------|
A|---0-------0---------0-----0----------3-----3----------3-----3-------------|
E|---------------------------------------------------------------------------|

E|---------------------------------------------------------------------------|
B|-----1-------1-----1--------1----1---------1----1---------1----------------|
G|---------0--------------0-------------0---------------0--------------------|
D|-----3-----3-------3------3------0------0-------0-------0------------------|
A|---------------------------------------------------------------------------|
E|---1---1---------1----1--------3---3---------3-----3-----------------------|

E|---------------------------------------------------------------------------|
B|------1-----------1-----1----------1-----1----------1-----1-----------1----|
G|--------------0---------------0----------------0----------------0----------|
D|------0h2-------2-------2-------2--------2-------2--------2--------2-------|
A|---3-------3---------3-----3----------3-----3----------3-----3-------------|
E|---------------------------------------------------------------------------|
Outros vídeos desta música
    5 exibições
      • ½ Tom
      • A
      • Bb
      • B
      • C
      • Db
      • D
      • Eb
      • E
      • F
      • F#
      • G
      • Ab
    • Adicionar à lista

    Afinação da cifra

    Afinador online

      0 comentários

      Ver todos os comentários

      Conseguiu tocar?

      0Tocaram0Ainda não

      Grave um vídeo tocando Sometimes Its Something Sometimes Its Nothing At All e nos envie!

      Toque também

      1. Imagem do artista Mumford & SonsI Will Wait Mumford & Sons
      2. Imagem do artista In FlamesCloud Connected In Flames
      3. Imagem do artista Foy VanceMake It Rain Foy Vance
      4. Imagem do artista Jamie LawsonCan't See Straight Jamie Lawson

      Entre para o Cifra Club PRO

      Tenha acesso a benefícios exclusivos no App e no Site

      • Chega de anúncios

      • Badges exclusivas

      • Mais recursos no app do Afinador

      • Atendimento Prioritário

      • Aumente seu limite de lista

      • Ajude a produzir mais conteúdo

      Cifra Club Pro

      Aproveite o Cifra Club com benefícios exclusivos e sem anúncios
      Cifra Club Pro
      Aproveite o Cifra Club com benefícios exclusivos e sem anúncios
      Ops (: Contenido disponible sólo en portugués.
      OK