Cifra Club

The River

Passenger

Cifra: Principal (violão e guitarra)
Selo Cifra Club: esta cifra foi revisada para atender aos critérios oficiais da nossa Equipe de Qualidade.
tom: Am
Intro

E|----------------------------|----------------------------|
B|-----------0----------------|-----------0-----------0----|
G|-----------------0-----0----|-----------------0----------|
D|--------2-----2-------------|--------0-----0-----0-------|
A|----------------------------|----------------------------|
E|--0-----------------2-------|--3-------------------------|


E|----------------------------|----------------------------|
B|-----------1-----------1----|--0--------0----------------|
G|-----------------0----------|-----0-----------0----------|
D|--------2-----2-----2-------|--------0-----------0-------|
A|--3-------------------------|----------------------------|
E|----------------------------|--3-------------------------|


E|-----------------------3----|-------|----------------------------|
B|-----------1----------------|-------|-----------1----------------|
G|-----------------0----------|-------|-----2-----------2-----0----|
D|--------2-----2-----2-------|-------|--------2-----2-------------|
A|--3-------------------------|--3----|--0-----------------2-------|
E|----------------------------|-------|----------------------------|


E|----------------------------|
B|-----------1-----------1----|
G|-----0-----------0----------|
D|--------2-----2-----2-------|
A|--3-------------------------|
E|----------------------------|


E|----------------------------------------------------|
B|--1h-3--------------------3-----1-------------------|
G|--------------------0-----------------------0-------|
D|--------------0-----------------------0-------------|
A|----------------------------------------------------|
E|--3-------------------------------------------------|


E|----------------------------------------------------|
B|--------------------1-------------------------------|
G|--0h-2--------------------------2-----------0-------|
D|--------------3-----------3-----------3-------------|
A|----------------------------------------------------|
E|--1-------------------------------------------------|


E|--0-------------------------|----------------------------|
B|-----------------1----------|-----------1----------------|
G|-----------2-----------0----|-----------------0-----0----|
D|--------2-----2-------------|--------2-----2-----2-------|
A|--0-----------------2-------|--3-------------------------|
E|----------------------------|----------------------------|


E|----------------------------|----------------------------|
B|-----------1-----------1----|-----------1----------------|
G|--0h-2-----------2----------|-----------------0----------|
D|--------3-----3-----3-------|--------0-----------0-------|
A|----------------------------|----------------------------|
E|--1-------------------------|--3-------------------------|

Verse 1

E|----------------------------|----------------------------|
B|-----------1----------------|-----------1-----------1----|
G|-----2-----------2-----0----|-----------------0----------|
D|--------2-----2-------------|--------2-----------2-------|
A|--0-----------------2-------|--3-------------------------|
E|----------------------------|----------------------------|


E|----------------------------|----------------------------|
B|-----------0----------------|-----------1----------------|
G|-----0-----------0-----0----|-----------------0-----0----|
D|--------0-----0-----0-------|--------3-----------3-------|
A|----------------------------|----------------------------|
E|--3-------------------------|--1-------------------------|


E|----------------------------|----------------------------|
B|-----------1-----------1----|-----------1-----------1----|
G|-----2-----------2----------|-----0-----------0----------|
D|--------2-----2-----2-------|--------2-----2-----2-------|
A|--0-------------------------|--3-------------------------|
E|----------------------------|----------------------------|


E|----------------------------|----------------------------|
B|-----------1-----------1----|-----------1-----------1----|
G|-----0-----------0----------|-----0-----------0----------|
D|--------3-----3-----3-------|--------0-----0-----0-------|
A|----------------------------|----------------------------|
E|--1-------------------------|--3-------------------------|


E|----------------------------|----------------------------|
B|-----------1-----------1----|-----------1-----------1----|
G|-----0-----------0----------|-----0-----------0----------|
D|--------3-----3-----3-------|--3-----3-----3-----3-------|
A|----------------------------|----------------------------|
E|--1-------------------------|----------------------------|


E|----------------------------|----------------------------|
B|-----------1-----------1----|-----------1-----------1----|
G|-----0-----------0----------|-----2-----------2----------|
D|--------2-----------0-------|--------2-----------2-------|
A|--3-----------2-------------|--0-------------------------|
E|----------------------------|----------------------------|


E|-----------1-----------1----|-----------1-----------1----|
B|-----3-----------3----------|-----3-----------3----------|
G|--------2-----------2-------|--------2-----------2-------|
D|--0-------------------------|--0-------------------------|
A|----------------------------|----------------------------|
E|----------------------------|----------------------------|


E|----------------------------|----------------------------|
B|-----------1-----------1----|-----------1-----------1----|
G|-----0-----------0----------|-----0-----------0----------|
D|--------2-----2-----2-------|--------3-----3-----3-------|
A|--3-------------------------|----------------------------|
E|----------------------------|--1-------------------------|


Chorus

E|----------------------------|----------------------------|
B|-----------1-----------1----|-----------1-----------1----|
G|-----2-----------2----------|-----0-----------0----------|
D|--------2-----2-----2-------|--------3-----3-----3-------|
A|--0-------------------------|----------------------------|
E|----------------------------|--1-------------------------|


E|----------------------------|----------------------------|
B|-----------1-----------1----|-----------1----------------|
G|-----0-----------0----------|-----0-----------0-----0----|
D|--------0-----0-----0-------|--------2-------------------|
A|----------------------------|--3-----------3-----2-------|
E|--3-------------------------|----------------------------|


E|----------------------------|----------------------------|
B|-----------1-----------1----|-----------1-----------1----|
G|-----2-----------2----------|-----0-----------0----------|
D|--------2-----2-----2-------|--------3-----3-----3-------|
A|--0-------------------------|----------------------------|
E|----------------------------|--1-------------------------|


E|----------------------------|----------------------------|
B|-----------1-----------1p---|--0--------0-----------0----|
G|-----0-----------0----------|-----0-----------0----------|
D|--------0-----0-----0-------|--------0-----------0-------|
A|----------------------------|----------------------------|
E|--3-------------------------|----------------------------|

Verse 2

E|----------------------------|----------------------------|
B|-----------1-----------1----|-----------1-----------1----|
G|-----2-----------2----------|-----0-----------0----------|
D|--------2-----2-----2-------|--------2-----2-----2-------|
A|--0-------------------------|--3-------------------------|
E|----------------------------|----------------------------|


E|----------------------------|----------------------------|
B|-----------0----------------|-----------1-----------1----|
G|-----0-----------0-----0----|-----0-----------0----------|
D|--------0-----0-----0-------|--------3-----3-----3-------|
A|----------------------------|----------------------------|
E|--3-------------------------|--1-------------------------|


E|----------------------------|----------------------------|
B|-----------1-----------1----|-----------1-----------1----|
G|-----2-----------2----------|-----0-----------0----------|
D|--------2-----2-----2-------|--------2-----2-----2-------|
A|--0-------------------------|--3-------------------------|
E|----------------------------|----------------------------|


E|----------------------------|----------------------------|
B|-----------1-----------1----|-----------1-----------1----|
G|-----0-----------0----------|-----0-----------0----------|
D|--------3-----3-----3-------|--------0-----0-----0-------|
A|----------------------------|----------------------------|
E|--1-------------------------|--3-------------------------|


E|----------------------------|----------------------------|
B|-----------1-----------1----|-----------1-----------1----|
G|-----0-----------0----------|-----0-----------0----------|
D|--------3-----3-----3-------|--3-----3-----3-----3-------|
A|----------------------------|----------------------------|
E|--1-------------------------|----------------------------|


E|----------------------------|----------------------------|
B|-----------1-----------1----|-----------1-----------1----|
G|-----0-----------0----------|-----2-----------2----------|
D|--------2-----------0-------|--------2-----------2-------|
A|--3-----------2-------------|--0-------------------------|
E|----------------------------|----------------------------|


E|-----------1-----------1----|-----------1-----------1----|
B|-----3-----------3----------|-----3-----------3----------|
G|--------2-----------2-------|--------2-----------2-------|
D|--0-----------0-------------|--0-----------0-------------|
A|----------------------------|----------------------------|
E|----------------------------|----------------------------|


E|----------------------------|----------------------------|
B|-----------1-----------1----|-----------1-----------1----|
G|-----0-----------0----------|-----0-----------0----------|
D|--------2-----2-----2-------|--------3-----3-----3-------|
A|--3-------------------------|----------------------------|
E|----------------------------|--1-------------------------|

Chorus

E|----------------------------|----------------------------|
B|-----------1-----------1----|-----------1-----------1----|
G|-----2-----------2----------|-----0-----------0----------|
D|--------2-----2-----2-------|--------3-----3-----3-------|
A|--0-------------------------|----------------------------|
E|----------------------------|--1-------------------------|


E|----------------------------|----------------------------|
B|-----------1-----------1----|-----------1----------------|
G|-----0-----------0----------|-----0-----------0-----0----|
D|--------0-----0-----0-------|--------2-------------------|
A|----------------------------|--3-----------3-----2-------|
E|--3-------------------------|----------------------------|


E|----------------------------|----------------------------|
B|-----------1-----------1----|-----------1-----------1----|
G|-----2-----------2----------|-----0-----------0----------|
D|--------2-----------2-------|--------3-----3-----3-------|
A|--0-------------------------|----------------------------|
E|----------------------------|--1-------------------------|


E|----------------------------|----------------------------|
B|-----------1-----------1p---|--0--------0-----------0----|
G|-----0-----------0----------|-----0-----------0----------|
D|--------0-----0-----0-------|--------0-----0-----0-------|
A|----------------------------|----------------------------|
E|--3-------------------------|--3-------------------------|


Re-Intro

E|----------------------------------------------------|
B|--------------------1-------------------------------|
G|--0h-2--------------------------2-----------0-------|
D|--------------2-----------2-------------------------|
A|--0-----------------------------------2-------------|
E|----------------------------------------------------|


E|----------------------------|
B|-----------1-----------1----|
G|-----------------0----------|
D|--------2-----------2-------|
A|--3-------------------------|
E|----------------------------|


E|----------------------------------------------------|
B|--1h-3--------------------3-----------1-------------|
G|--------------------0-------------------------------|
D|--------------0-----------0-----------0-------------|
A|----------------------------------------------------|
E|--3-------------------------------------------------|


E|--------------------------------------------------------------------------------------------|
B|-----------------------------------------1--------------------------------------------------|
G|--0h-2-----------------------------------------------------------2-------------------------0|
D|-----------------------------3-----------------------3-----------------------3--------------|
A|--------------------------------------------------------------------------------------------|
E|-----1--------------------------------------------------------------------------------------|


E|--0-----------0h-3----------|
B|--1-------------------------|
G|-----------2-----------0----|
D|--------2-----2-------------|
A|--0-----------------0-------|
E|----------------------------|


E|--3-------------------------|
B|--1--------------1----------|
G|-----------0-----------0----|
D|--------2-----2-----2-------|
A|--3-------------------------|
E|----------------------------|


E|--------------------------3-------------------------|
B|--------------------1-------------------------------|
G|--0h-2--------------------------------------0-------|
D|--------------3-----------------------3-------------|
A|----------------------------------------------------|
E|--1-------------------------------------------------|


E|--------------------------------------------------------------------------------|
B|--1h-3-----------------------------------------------------------3--------------|
G|-----------------------------------------0--------------------------------------|
D|-----------------------------0-----------------------0-----------------------0--|
A|--------------------------------------------------------------------------------|
E|-----3--------------------------------------------------------------------------|


Verse 3


E|----------------------------|
B|-----------1-----------1----|
G|-----2-----------2----------|
D|--------2-----2-------------|
A|--0-----------------2-------|
E|----------------------------|


E|----------------------------|----------------------------|
B|-----------1-----------1----|-----------0----------------|
G|-----0-----------0----------|-----0-----------0-----0----|
D|--------2-----2-----2-------|--------0-----0-----0-------|
A|--3-------------------------|----------------------------|
E|----------------------------|--3-------------------------|


E|----------------------------|----------------------------|
B|-----------1-----------1----|-----------1-----------1----|
G|-----0-----------0----------|-----2-----------2----------|
D|--------3-----3-----3-------|--------2-----2-----2-------|
A|----------------------------|--0-------------------------|
E|--1-------------------------|----------------------------|


E|----------------------------|----------------------------|
B|-----------1-----------1----|-----------1-----------1----|
G|-----0-----------0----------|-----0-----------0----------|
D|--------2-----2-----2-------|--------3-----3-----3-------|
A|--3-------------------------|----------------------------|
E|----------------------------|--1-------------------------|


E|----------------------------|----------------------------|
B|-----------1-----------1----|-----------1-----------1----|
G|-----0-----------0----------|-----0-----------0----------|
D|--------0-----0-----0-------|--------3-----3-----3-------|
A|----------------------------|----------------------------|
E|--3-------------------------|--1-------------------------|


E|----------------------------|----------------------------|
B|-----------1-----------1----|-----------1-----------1----|
G|-----0-----------0----------|-----0-----------0----------|
D|--3-----3-----3-----3-------|--------2-----------0-------|
A|----------------------------|--3-----------2-------------|
E|----------------------------|----------------------------|


E|----------------------------|-----------1-----------1----|
B|-----------1-----------1----|-----3-----------3----------|
G|-----2-----------2----------|--------2-----------2-------|
D|--------2-----2-----2-------|--0-------------------------|
A|--0-------------------------|----------------------------|
E|----------------------------|----------------------------|


E|-----------1-----------1----|----------------------------|
B|-----3-----------3----------|-----------1-----------1----|
G|--------2-----2-----2-------|-----0-----------0----------|
D|--0-------------------------|--------2-----2-----2-------|
A|----------------------------|--3-------------------------|
E|----------------------------|----------------------------|


                                  Verse 4
E|----------------------------|----------------------------|
B|-----------1-----------1----|-----------1-----------1----|
G|-----0-----------0----------|-----2-----------2----------|
D|--------3-----3-----3-------|--------2-----2-----2-------|
A|----------------------------|--0-------------------------|
E|--1-------------------------|----------------------------|


E|----------------------------|----------------------------|
B|-----------1-----------1----|-----------0----------------|
G|-----0-----------0----------|-----0-----------0-----0----|
D|--------2-----2-----2-------|--------0-----0-----0-------|
A|--3-------------------------|----------------------------|
E|----------------------------|--3-------------------------|


E|----------------------------|----------------------------|
B|-----------1-----------1----|-----------1-----------1----|
G|-----0-----------0----------|-----2-----------2----------|
D|--------3-----3-----3-------|--------2-----2-----2-------|
A|----------------------------|--0-------------------------|
E|--1-------------------------|----------------------------|


E|----------------------------|----------------------------|
B|-----------1-----------1----|-----------1-----------1----|
G|-----0-----------0----------|-----0-----------0----------|
D|--------2-----2-----2-------|--------3-----3-----3-------|
A|--3-------------------------|----------------------------|
E|----------------------------|--1-------------------------|


E|----------------------------|----------------------------|
B|-----------1-----------1----|-----------1-----------1----|
G|-----0-----------0----------|-----0-----------0----------|
D|--------2-----2-----2-------|--------3-----3-----3-------|
A|--3-------------------------|----------------------------|
E|----------------------------|--1-------------------------|


E|----------------------------|----------------------------|
B|-----------1-----------1----|-----------1-----------1----|
G|-----0-----------0----------|-----0-----------0----------|
D|--------3-----3-----3-------|--------2-----------0-------|
A|----------------------------|--3-----------2-------------|
E|--1-------------------------|----------------------------|


E|----------------------------|-----------1-----------1----|
B|-----------1-----------1----|-----3-----------3----------|
G|-----2-----------2----------|--------2-----2-----2-------|
D|--------2-----------2-------|--0-------------------------|
A|--0-------------------------|----------------------------|
E|----------------------------|----------------------------|


E|-----------1-----------1----|----------------------------|
B|-----3-----------3----------|-----------1-----------1----|
G|--------2-----2-----2-------|-----0-----------0----------|
D|--0-------------------------|--------2-----2-----2-------|
A|----------------------------|--3-------------------------|
E|----------------------------|----------------------------|

                                  Chorus
E|----------------------------|----------------------------|
B|-----------1-----------1----|-----------1-----------1----|
G|-----0-----------0----------|-----2-----------2----------|
D|--------3-----3-----3-------|--------2-----2-----2-------|
A|----------------------------|--0-------------------------|
E|--1-------------------------|----------------------------|


E|----------------------------|----------------------------|
B|-----------1-----------1----|-----------1-----------1----|
G|-----0-----------0----------|-----0-----------0----------|
D|--------3-----3-----3-------|--------0-----0-----0-------|
A|----------------------------|----------------------------|
E|--1-------------------------|--3-------------------------|


E|----------------------------|----------------------------|
B|-----------1----------------|-----------1-----------1----|
G|-----0-----------0-----0----|-----2-----------2----------|
D|--------2-------------------|--------2-----------2-------|
A|--3-----------3-----2-------|--0-------------------------|
E|----------------------------|----------------------------|


E|----------------------------|----------------------------|
B|-----------1-----------1----|-----------1-----------1----|
G|-----0-----------0----------|-----0-----------0----------|
D|--------3-----3-----3-------|--------0-----0-----0-------|
A|----------------------------|----------------------------|
E|--1-------------------------|--3-------------------------|


E|----------------------------|----------------------------|
B|-----------1-----------1----|-----------1-----------1----|
G|-----0-----------0----------|-----2-----------2----------|
D|--------3-----3-----3-------|--------2-----2-----2-------|
A|----------------------------|--0-------------------------|
E|--1-------------------------|----------------------------|


E|----------------------------|----------------------------|
B|-----------1-----------1----|-----------1-----------1----|
G|-----0-----------0----------|-----0-----------0----------|
D|--------3-----3-----3-------|--------0-----0-----0-------|
A|----------------------------|----------------------------|
E|--1-------------------------|--3-------------------------|


E|----------------------------|----------------------------|
B|-----------1----------------|-----------1-----------1----|
G|-----0-----------0-----0----|-----2-----------2----------|
D|--------2-------------------|--------2-----------2-------|
A|--3-----------3-----2-------|--0-------------------------|
E|----------------------------|----------------------------|


E|----------------------------|----------------------------|
B|-----------1-----------1----|-----------1-----------1----|
G|-----0-----------0----------|-----0-----------0----------|
D|--------3-----3-----3-------|--------0-----0-----0-------|
A|----------------------------|----------------------------|
E|--1-------------------------|--3-------------------------|


E|----------------------------|----------| |
B|--0--------0----------------|----------| |
G|-----0----------------------|----------| |
D|--------0-------------------|----------| |
A|----------------------------|--7-------| |
E|--3-----------3-----4-------|--5-------| |
Outros vídeos desta música
    1 exibições
      • ½ Tom
      • Am
      • Bbm
      • Bm
      • Cm
      • C#m
      • Dm
      • Ebm
      • Em
      • Fm
      • F#m
      • Gm
      • G#m
    • Adicionar à lista

    Afinação da cifra

    Afinador online

      0 comentários

      Ver todos os comentários

      Conseguiu tocar?

      0Tocaram0Ainda não

      Grave um vídeo tocando The River e nos envie!

      Toque também

      1. Imagem do artista Mumford & SonsI Will Wait Mumford & Sons
      2. Imagem do artista In FlamesCloud Connected In Flames
      3. Imagem do artista Foy VanceMake It Rain Foy Vance
      4. Imagem do artista Jamie LawsonCan't See Straight Jamie Lawson

      Entre para o Cifra Club PRO

      Tenha acesso a benefícios exclusivos no App e no Site

      • Chega de anúncios

      • Badges exclusivas

      • Mais recursos no app do Afinador

      • Atendimento Prioritário

      • Aumente seu limite de lista

      • Ajude a produzir mais conteúdo

      Cifra Club Pro

      Aproveite o Cifra Club com benefícios exclusivos e sem anúncios
      Cifra Club Pro
      Aproveite o Cifra Club com benefícios exclusivos e sem anúncios
      Ops (: Contenido disponible sólo en portugués.
      OK