Cifra Club

Phrasing

Pat Martino

Cifra: Principal (violão e guitarra)
Selo Cifra Club: esta cifra foi revisada para atender aos critérios oficiais da nossa Equipe de Qualidade.
tom: Em
E|----------5-8-----------------------------------|
B|------5-8-----5-8-3--3--------------------------|
G|---5-7--------------5--5-2--5-2-----------------|
D|-7-------------------------5----5-2---2---------|
A|------------------------------------5---3---3---|
E|------------------------------------------5---3-|

E|----------------------------------5-7-8----------------------------|
B|--------------------------5-6-7-8------8-6-5-------------8---------|
G|--------------------5-7-5--------------------7-5-------5-----------|
D|--------5--5-7-5--5------------------------------7-5-7-------------|
A|----5-7--7------7--------------------------------------------------|
E|-5-8---------------------------------------------------------------|

E|-----5----------------------------5-7-8-7-5---5-8-7-8-7-5---8---|
B|---5---5---------------54-54-----5----------8-------------8---8-|
G|---------7---5----5-7-5-----7-5-2-------------------------------|
D|-----------5---5-7----------------------------------------------|
A|----------------------------------------------------------------|
E|----------------------------------------------------------------|

E|-10-8-10-10-12-13-10-12-10---------------8-10-8---8-10-8----------------------|
B|--------------------------10------------8-------10-------10-8-10-8--8-10-8----|
G|----------------------------10\9-12-9-10---------------------------9-------9--|
D|------------------------------------------------------------------------------|
A|------------------------------------------------------------------------------|
E|------------------------------------------------------------------------------|

E|-----5-----------------5-----8---5-8-5---8-----------|
B|---5---8-5-----------8---8-8---8-------8-------------|
G|-7---------8-7-5-7-5---------------------------------|
D|-----------------------------------------------------|
A|-----------------------------------------------------|
E|-----------------------------------------------------|

E|---13-12-13/15-10-8------------------------8-10-8---8-10-8---8-10-8-----------|
B|-10----------------8----------------------8------10-------10-------10-8-10-8--|
G|--------------------9--------------------9----------------------------------9-|
D|---------------------10---10-7-----7-9/10-------------------------------------|
A|-----------------------10------7-10-------------------------------------------|
E|------------------------------------------------------------------------------|
Outros vídeos desta música
    6 exibições
      • ½ Tom
      • Am
      • Bbm
      • Bm
      • Cm
      • C#m
      • Dm
      • Ebm
      • Em
      • Fm
      • F#m
      • Gm
      • G#m
    • Adicionar à lista

    Afinação da cifra

    Afinador online

      0 comentários

      Ver todos os comentários

      Entre para o Cifra Club PRO

      Tenha acesso a benefícios exclusivos no App e no Site

      • Chega de anúncios

      • Badges exclusivas

      • Mais recursos no app do Afinador

      • Atendimento Prioritário

      • Aumente seu limite de lista

      • Ajude a produzir mais conteúdo

      Cifra Club Pro

      Aproveite o Cifra Club com benefícios exclusivos e sem anúncios
      Cifra Club Pro
      Aproveite o Cifra Club com benefícios exclusivos e sem anúncios
      OK