Cifra Club

Aprenda

Bluejean Bop

Paul McCartney

Cifra: Principal (violão e guitarra)
tom: A
A
Bluejean Baby 
          D      A
With Your Big Blue Eyes 
 A
Don't Want You Looking 
   D     A
At Other Guys 
 A
Got To Make You Give Me 
D         A
One More Chance 
I Can't Keep Still 
So Baby Let's Dance 

          D
Well The Bluejean Bop 
Is The Bop For Me 
         A
It's The Bop That's Done 
In The Dungaree 
    D
You Dip Your Hip 
You Free Your Knee 
      A
Well Wiggle On Your Baby 1 2 3 

        D
Well A Bluejean Bop 
Bluejean Bop A Baby 
  A
Bluejean Bop Bluejean Bop A Baby 
  E
Bluejean Bop 
 D                    A
Baby Won't You Bop With Me 

Solo:  A  D  A  E  D  A



e|5----5--5----5--5----5--5----5-|5----5--5----5--5----5--5----5-|
B|4H5--5--4H5--5--4----5--4----5-|4----5--4----5--4H5--5--4H5--5-|
G|-------------------------------|-------------------------------|
D|-------------------------------|-------------------------------|
A|-------------------------------|-------------------------------|
E|-------------------------------|-------------------------------|

e|5----5--5----5--5----5--5----5-|5----5--5----5--5-------5----8-|
B|4H5--5--4H5--5--4H5--5--4H5--5-|4H5--5--4H5--5--4H5----------7-|
G|-------------------------------|-------------------------------|
D|-------------------------------|-------------------------------|
A|-------------------------------|-------------------------------|
E|-------------------------------|-------------------------------|

E|--------5----5--5-------5----8-|--------5-------5-------5----8-|
B|--------5----5--5-------5----7-|----------------5-------5----7-|
G|-------------------------------|-------------------------------|
D|-------------------------------|-------------------------------|
A|-------------------------------|-------------------------------|
E|-------------------------------|-------------------------------|

E|--------5----5--5-------5------|5----5--5----5-------5-------5-|
B|--------5-------5----5--7------|5-------7----5-------5-------5-|
G|-------------------------------|-------------------------------|
D|-------------------------------|-------------------------------|
A|-------------------------------|-------------------------------|
E|-------------------------------|-------------------------------|

E|----------------5----5-------5-|7B8--5--7---7B8R7----5---------|
B|7B8-----7-------5----5-------5-|---------------------5--7------|
G|------------------------7------|-------------------------------|
D|-------------------------------|-------------------------------|
A|-------------------------------|-------------------------------|
E|-------------------------------|-------------------------------|

e|5------------5-----------------|-----5---------------5---------|--------------------------------|
B|5----5--7----5----------------5|-----5--7-----5------5---------|--------------------------------|
G|-----------------7-----------------|
D|-------------------------------|---|
A|-------------------------------|---|
E|-------------------------------|---|
                                                         

          D
Well The Bluejean Bop 
Is The Bop For Me 
         A
It's The Bop That's Done 
In The Dungaree 
    D
You Dip Your Hip 
You Free Your Knee 
      A
Well Wiggle On Your Baby 1 2 3 

        D
Well A Bluejean Bop 
Bluejean Bop A Baby 
  A
Bluejean Bop Bluejean Bop A Baby 
  E
Bluejean Bop 
 D                    A
Baby Won't You Bop With Me 

Solo:  A  D  A  E  D  A



e|5-----------5---------------|------------5---------------|--------------------------------|
B|5------------5-----------------|------5H7----5-----------------|--------------------------------|
G|-------------------------7-----5---|
D|-------------------------------|---|
A|-------------------------------|---|
E|-------------------------------|---|

e|5----5------5---------------|----------------------------|--------------------------------|
B|5----5-------5-----------------|------5H7----7B8--------7------|--------------------------------|
G|-------------------------7-----5---|
D|-------------------------------|---|
A|-------------------------------|---|
E|-------------------------------|---|


                                                             
E|--------|------------------|---------------------x----0---|
B|7H10P7-------------------------|-----------------------(12)----|-------------------------------------------------|
G|---------7------------------------------------------------|
D|----------------7-----------------------------------------|
A|-----------------------7----------------------------------|
E|-----------------------------|----------------------------|

E|------12------0-----12-----12------12-------\----x------7---|
B|------13------13--------------------------------------------|
G|---------------------------|--------------------------------|
D|---------------------------|--------------------------------|
A|---------------------------|--------------------------------|
E|---------------------------|--------------------------------|

E|------7-|7----------------7-|-----7-7-----------------5---|
B|--------8-------------------------------------------------|
G|----------------9-------9-----|---------------9-------7---|
D|----------------------------|-----------------------------|
A|----------------------------|-----------------------------|
E|----------------------------|-----------------------------|

E|------5-|------5----5------|8P7P5-------------------|
B|------5---------5----5-----|------8P7P5-------------|
G|---------7------------7----|-----------8P7P5--------|
D|---------------------------|-----------7-------5/---|
A|---------------------------|------------------------|
E|---------------------------|------------------------|

          D
Well The Bluejean Bop 
Is The Bop For Me 
         A
It's The Bop That's Done 
In The Dungaree 
    D
You Dip Your Hip 
You Free Your Knee 
      A
Well Wiggle On Your Baby 1 2 3 

        D
Well A Bluejean Bop 
Bluejean Bop A Baby 
  A
Bluejean Bop Bluejean Bop A Baby 
  E
Bluejean Bop 
 D                    A
Baby Won't You Bop With Me
Colaboração e revisão:
  • DENIS PRADO
2.386 exibições
    • ½ Tom
    • A
    • Bb
    • B
    • C
    • Db
    • D
    • Eb
    • E
    • F
    • F#
    • G
    • Ab
  • Adicionar à lista

    0 comentários

    Ver todos os comentários

    Conseguiu tocar?

    0 Tocaram 0 Ainda não

    Grave um vídeo tocando Bluejean Bop e nos envie!

    00:00 / 00:00
    outros vídeos desta música
    repetir qualidade Automático
    Outros vídeos desta música
    00:00 / 00:00
    Automático

    Cifra Club Pro

    Aproveite o Cifra Club com benefícios exclusivos e sem anúncios
    Cifra Club Pro
    Aproveite o Cifra Club com benefícios exclusivos e sem anúncios
    OK