Cifra Club

Aprenda

Every Night

Paul McCartney

Cifra: Principal (violão e guitarra)
tom: B
[Intro]

E|--3s4-4-4-4-4-4-4-4--------------------------|
B|--0-0-0-0-0-0-0-0-0--------------------------|
G|--3s4-4-4-4-4-4-4-4--------------------------|
D|---------------------------------------------|
A|---------------------------------------------|
E|---------------------------------------------|

E7                                             E7sus4
Every night I just wanna go out, get out of my head
E7                                              E7sus4
Every day I don't want to get up, get out of my bed
A      F#m              Bm
 Every night I want to play out
F#7                        B  A  G#m F#m E
 And every night I want to do oo oo  oo  oo
E                                              F#m7
But tonight I just want to stay in and be with you
B7            
 And be with you

E     A     E     B7
Oo oo oo oo oo oo oo oo
E     A     E     B7     
Oo oo oo oo oo oo oo oo

Every day I lean on a lamp post, I'm wasting my time
Every night I lay on a pillow, I'm resting my mind
Every morning brings a new day
Every night that day is through oo oo oo oo
But tonight I just want to be here and be with you
And be with you

E     A     E     B7
Oo oo oo oo oo oo oo oo
E     A     E     B7     
Oo oo oo oo oo oo oo oo

E|--3s4-4-4-4-4-4-4-4-3s4-4-4------------------|
B|--0-0-0-0-0-0-0-0-0-0-0-0-0-0-0-0-0----------|
G|--3s4-4-4-4-4-4-4-4-3s4-4-4-4-3-2-1----------|
D|--0-0-0-0-0-0-0-0-0-0-0-0-0-0-0-0-0----------|
A|---------------------------------------------|
E|---------------------------------------------|
Composição de Paul McCartney
Colaboração e revisão:
  • Gabriel Rios
15.775 exibições
    • ½ Tom
    • A
    • Bb
    • B
    • C
    • Db
    • D
    • Eb
    • E
    • F
    • F#
    • G
    • Ab
  • Adicionar à lista

    0 comentários

    Ver todos os comentários

    Conseguiu tocar?

    6 Tocaram 0 Ainda não

    Grave um vídeo tocando Every Night e nos envie!

    00:00 / 00:00
    outros vídeos desta música
    repetir qualidade Automático
    Outros vídeos desta música
    00:00 / 00:00
    Automático

    Cifra Club Pro

    Aproveite o Cifra Club com benefícios exclusivos e sem anúncios
    Cifra Club Pro
    Aproveite o Cifra Club com benefícios exclusivos e sem anúncios
    OK