Cifra Club

Aprenda

Jet

Paul McCartney

Cifra: Principal (violão e guitarra)
tom: A
Ah, mater...              (solo)
E|---5--------------------|-17--14-12-----------------------------17--14-12-----------------------
B|-7----------------------|-----------14-12-------12-14---------------------14-12-------12-14-----
G|----------------1-2-4-4-|-----------------14-14-------11--11-9------------------14-14-------11--
D|----------1-2-4---------|-----------------------------------------------------------------------
A|------2-4---------------|-----------------------------------------------------------------------
E|------------------------|-----------------------------------------------------------------------

E|-5-----------------------------
B|-----7-5-----------------------
G|---------6-4-2-2-4-6-----------
D|---------------------4--4--2---
A|-------------------------------
E|-------------------------------

(intro) B5 C#5 D5 B5 C#5 D5 C#m7

A
Jet Jet Jet
                            D/A      A
I can almost remember their funny faces
                                                         D/A
That time you told'em that you were going to be marrying soon
    C#m7
And Jet,
              B5       C#5 D5               A
I thought the only lonely place was on the moon
Jet oo Jet oo
                                    D/A       A
Jet, was your father as bold as a sergeant major
                                                         D/A
Well how come he told you that you were hardly old enough yet
    C#m7
And Jet,
              B5       C#5 D5          A
I thought the major was a lady suffragette
Jet oo Jet oo

Bm                       E
Ah, mater, want Jet to always love me
Bm                       E
Ah, mater, want Jet to always love me
Bm          A          D A D E
Ah, mater, much later

                                       D/A       A
Jet, with the wind in your hair of a thousand laces
                                                D/A
Climb on the back and we'll go for a ride in the sky
    C#m7
And Jet,
              B5       C#5 D5                 A
I thought the major was a little lady suffragette
Jet oo Jet oo
Composição de Linda McCartney / Paul McCartney
Colaboração e revisão:
  • Guilherme Borba
  • Rui Borba
23.573 exibições
    • ½ Tom
    • A
    • Bb
    • B
    • C
    • Db
    • D
    • Eb
    • E
    • F
    • F#
    • G
    • Ab
  • Adicionar à lista

    0 comentários

    Ver todos os comentários
    00:00 / 00:00
    outros vídeos desta música
    repetir qualidade Automático
    Outros vídeos desta música
    00:00 / 00:00
    Automático

    Cifra Club Pro

    Aproveite o Cifra Club com benefícios exclusivos e sem anúncios
    Cifra Club Pro
    Aproveite o Cifra Club com benefícios exclusivos e sem anúncios
    OK