Cifra Club

Sonhos

Paulinho Moska

Cifra: Principal (violão e guitarra)
tom: C
[Intro]

E|----------------2--0h1/2-0----------5----5--0h5p0--|
B|-----5--7--5----3-----------5--7-------------------|
G|-----5--7--5----2-----------5--7--5-----5----------|
D|-----5--7--5----------------5--7--5----------------|
A|---0---------0--------------------0----------------|
E|----------------3-------------------6--------------|

E|----------------2--0h2-0------------5-5------------|
B|-----5--7--5----3---------------------5----5h6p5---|
G|-----5--7--5----2----------5--7--5----5--5---------|
D|-----5--7--5---------------5--7--5----7------------|
A|---0---------0-------------------0----5------------|
E|----------------3-------------------6-6------------|

Am
Tudo era apenas uma brincadeira
           E7
E foi crescendo, crescendo, me absorvendo
      A7              
De repente eu me vi assim
                  Dm Dm7M Dm7 Dm6    
Completamente seu

E7
Eu vi a minha força amarrada no seu passo
Am       Am7M          Am7            Am6
   Sem você não há caminho eu nem me acho
 F7
Vi um grande amor gritar dentro de mim
            E7
Como eu sonhei um dia

Am
Quando o meu mundo era mais mundo
                  E7
E todo mundo admitia uma mudança muito estranha
            A7         
Mais pureza, carinho, calma e alegria
        Dm Dm7M Dm7 Dm6          
No meu jeito de me dar

E7
Quando a minha voz se fez mais forte e mais sentida
Am       Am7M          Am7            Am6
A poesia fez folia em minha vida
F7
Você veio me falar dessa paixão inesperada
E7
   Por outra pessoa

Am
Mas não tem revolta, não, só quero que você se encontre
E7                     A7         
Saudade até que é bom, melhor que caminhar vazio
                  Dm   Dm7M   Dm7   Dm6 
A esperança é um dom que eu tenho em mim, eu tenho sim

E7                                  Am   Am7M     Am7     Am6
Não tem desespero não, você me ensinou milhões de coisas
                         F7/C         E7/B     
Tenho um sonho em minhas mãos, amanhã será um novo dia
                                  Bb6  Gm  Eb(9) Em6    
Certamente eu vou ser mais feliz

E|----------------2--0h1/2-0----------5----5--0h5p0--|
B|-----5--7--5----3-----------5--7-------------------|
G|-----5--7--5----2-----------5--7--5-----5----------|
D|-----5--7--5----------------5--7--5----------------|
A|---0---------0--------------------0----------------|
E|----------------3-------------------6--------------|

E|----------------2--0h2-0------------5-5------------|
B|-----5--7--5----3---------------------5----5h6p5---|
G|-----5--7--5----2----------5--7--5----5--5---------|
D|-----5--7--5---------------5--7--5----7------------|
A|---0---------0-------------------0----5------------|
E|----------------3-------------------6-6------------|
00:00 / 00:00
Outros vídeos desta música
Repetir
Outros vídeos desta música
Composição de Peninha
48.585 exibições
    • ½ Tom
    • A
    • Bb
    • B
    • C
    • Db
    • D
    • Eb
    • E
    • F
    • F#
    • G
    • Ab
  • Adicionar à lista

    0 comentários

    Ver todos os comentários

    Entre para oCifra Club PRO

    Tenha acesso a benefícios exclusivos no App e no Site

    • Chega de anúncios

    • Prioridade de compra em lançamentos

    • Mais recursos no app do Afinador

    • Atendimento Prioritário

    • Descontos nos produtos Cifra Club

    • Ajude a produzir mais conteúdo

    00:00 / 00:00

    Cifra Club Pro

    Aproveite o Cifra Club com benefícios exclusivos e sem anúncios
    Cifra Club Pro
    Aproveite o Cifra Club com benefícios exclusivos e sem anúncios
    OK