Cifra Club

Baião

Paulo César Baruk

Cifra: Principal (violão e guitarra)
tom: E
Essa versão é aquela tocada no CD "Eletroacústico".

                       E5-        E4      E
E|---------------------------------------------------
B|----------------2h3-2------------------------------
G|------------1-4-------4-3--------3-2~~--2-1-------- 
D|----------2--------------------2~~-2~~~~~----------
A|---------------------------------------------------
E|--0~~~~~~~~~~~~~~~~~~~~~~-0~~~~----0~~~~~~~~0~~----

     E5-     E4      E
Ôoooooô...  ôoo...  ôo...

                          E7      E7/B  E7/D
 Minha vida que era muito louca,          (louca)

E7     E7/B        E7/D       E7    E7/B  E7/D
 só faltei correr atrás de avião         (de avião)

G#7                        C#m7
 Mas Jesus entrou no meu deserto
B7                   E7     E7/B  E7/D
 E inundou o meu coração

                       E7   E7/B  E7/D
 Eu era magro que dava dó, 
E7     E7/B    E7/D                    E7   E7/B  E7/D
 Meu paletó listrado era de uma listra só
G#7                       C#m7
 Mas Jesus entrou no meu deserto
B7                    E7
 E inundou o meu coração
B7                    E7
 E inundou o meu coração


    Jesus entrou no deserto
E|------------10-9-------------------------------
B|-------9-12------12-11~-----11----11----11-10~-
G|---8/9-------------------11----11----11--------
D|-----------------------------------------------
A|-----------------------------------------------
E|-----------------------------------------------

E|------------------------------------
B|-----10---10---10-9--7/9~-x-7/9~----
G|---9----9----9----9--7/9~-x-7/9~----
D|------------------------------------
A|------------------------------------
E|------------------------------------

E7                             E7                      E7
 Sem Jesus Cristo é impossível,  se viver nesse mundão
                       A           B7           E7
 Até parece que as pessoas estão morando no sertão
                               E7   E7/B  E7/D
 É faca com faca, é bala com bala, 
                     E7   E7/B  E7/D
 Metralhadoras e canhões
                        A              B7         E7
 Até parece que as faculdades só tá formando lampiões
                   E7   E7/B  E7/D
 E lampião e lamparina, 
                   E7   E7/B  E7/D
 Vela acesa e candeeiro
                       A             B7            E7
 Nunca vai salvar ninguém e ainda se vai gastar dinheiro
                          E7   E7/B  E7/D
 E o dinheiro anda mais curto, 
                  E7   E7/B  E7/D
 Do que perna de cobra
                 A                      B7           E7
 Filosofia de malandro: "No bolso que 'farta' nunca sobra"
                           E7   E7/B  E7/D
 E o que tá 'fartando' de amor, 
                   E7   E7/B  E7/D
 Tá sobrando iniquidades
                  A                      B7         E7
 Todo mundo se odiando pelas ruas, pelas ruas das cidades
 
                                     E7     E7/B  E7/D
 Se essas ruas, se essas ruas fossem minhas
                E7   E7/B  E7/D
 Eu pregava cartaz, 
                  E7   E7/B  E7/D
 Eu comprava um spray
                     A           B7          C#m7 A C#m7 A C#m7 A
 Escrevinhava nelas todas, Jesus... The only way

   (E7    E7/B  E7/D)
E|--------------------10-10-10-10-10-10-10----------------
B|--------------------9--9--9--9--9--9--9-----------------
G|--------------------7--7--7--7--7--7--7-----------------
D|--------------------------------------------------------
A|--------------------------------------------------------
E|--------------------------------------------------------

                         E7                         E7
 Jesus é o único caminho   pra quem quer morar no Céu
                    A    B7          E7
 Quem quiser atalhar  vai... PRO BELELÉU!!!
                        E7                         E7
 Jesus é o único caminho  pra quem quer morar no céu
                    A     B7        C#m7  A  C#m7  A  C#m7  A  E7
 Quem quiser atalhar  vai... PRO BELELÉU!!!


   (E7    E7/B  E7/D)
E|--------------------10-10-10-10-10-10-10----------------
B|--------------------9--9--9--9--9--9--9-----------------
G|--------------------7--7--7--7--7--7--7-----------------  
D|--------------------------------------------------------
A|--------------------------------------------------------
E|--------------------------------------------------------
  (Repete 2x)

                     E5-       E4      E
                Ôoooooô...    ôoo...  ôo...
E|------------10-9----------------------------
B|-------9-12------12-11~----11-10~----10~----
G|---8/9------------------11--------11--------
D|--------------------------------------------
A|--------------------------------------------
E|--------------------------------------------
  (Repete 4x)


E|--------------------------------------------------------
B|---9~-x-7-7/9~--x-7-7/9~--7-7-7--7-7-7--7-7-9~----------
G|---9~-x-7-7/9~--x-7-7/9~--7-7-7--7-7-7--7-7-9~----------
D|--------------------------------------------------------
A|--------------------------------------------------------
E|--------------------------------------------------------
   (Repete 4x)
00:00 / 00:00
Outros vídeos desta música
Repetir
Outros vídeos desta música
Composição de Janires Magalhães Manso
Colaboração e revisão:
31.022 exibições
    • ½ Tom
    • A
    • Bb
    • B
    • C
    • Db
    • D
    • Eb
    • E
    • F
    • F#
    • G
    • Ab
  • Adicionar à lista

    0 comentários

    Ver todos os comentários

    Entre para oCifra Club PRO

    Tenha acesso a benefícios exclusivos no App e no Site

    • Chega de anúncios

    • Prioridade de compra em lançamentos

    • Mais recursos no app do Afinador

    • Atendimento Prioritário

    • Descontos nos produtos Cifra Club

    • Ajude a produzir mais conteúdo

    00:00 / 00:00

    Cifra Club Pro

    Aproveite o Cifra Club com benefícios exclusivos e sem anúncios
    Cifra Club Pro
    Aproveite o Cifra Club com benefícios exclusivos e sem anúncios
    OK