Cifra Club

Perdão Senhor

Paulo Roberto

Cifra: Instrumental
exibições 148
Tom: A
Tom: C

[1ª Parte]


E|-----------------------------------------|
B|---5--3-----5~---3--5---8~-6~-5~-3~-5~---|
G|---------5-------------------------------|  (2X)
D|-----------------------------------------| 
A|-----------------------------------------|
E|-----------------------------------------|


[2ª Parte]


E|--------------5~----5--5----------------------------5-------------------------------------|
B|---5--6---8----------------8--6--5------8~----5--8-----8--6--5--6~--6--6--5~----5--6--8~--|
G|-------------------------------------7---------------------------------------7------------|
D|------------------------------------------------------------------------------------------|
A|------------------------------------------------------------------------------------------|
E|------------------------------------------------------------------------------------------|


[2ª Parte Variação]


E|--------------5~----5--5---------------------------5--------------------------------------|
B|---5--6---8----------------8--6--5-----8~----5--8-----8--6--5--6~--6--6--5~---------------|
G|------------------------------------7----------------------------------------7~--5--7--5~-|
D|------------------------------------------------------------------------------------------|
A|------------------------------------------------------------------------------------------|
E|------------------------------------------------------------------------------------------|


[Refrão]


E|------5----------------------5------------------------------------------------------------|
B|----------6--5---------5--6-----8~--5----------5--8--6~-6---6--5-------------5--8~--------|
G|---5-------------7~--------------------7--5~-----------------------7~-7--5----------------|
D|------------------------------------------------------------------------------------------|
A|------------------------------------------------------------------------------------------|
E|------------------------------------------------------------------------------------------|


E|------5----------------------5------------------------------------------------------------|
B|----------6--5---------5--6-----8~--5----------5--8--6~-6---6--5--------------------------|
G|---5-------------7~--------------------7--5~-----------------------7~-7--5--4~-5~---------|
D|------------------------------------------------------------------------------------------|
A|------------------------------------------------------------------------------------------|
E|------------------------------------------------------------------------------------------|


(REPETE)

[Final]


E|-----------------|
B|---5--3-----5~---|
G|---------5-------| 
D|-----------------| 
A|-----------------|
E|-----------------|
Acordes para:
    Colaboração e revisão:
    • Matheus Delôgo

    0 comentários

      mostrar mais comentários

      Conseguiu tocar?

      0tocaram0ainda não

      Grave um vídeo tocando Perdão Senhor e mande pra gente!

      00:00 / 00:00
      outros vídeos desta música
      repetirqualidadeautomática
      Outro vídeos desta música
        00:00 / 00:00
        automática
        OK