Cifra Club

Grounded

Pavement

Cifra: Principal (violão e guitarra)
Selo Cifra Club: esta cifra foi revisada para atender aos critérios oficiais da nossa Equipe de Qualidade.
tom: A
Guitarra1
       Repete durante toda a introdução
E--7--|--7--7--7--7--7--7--7--7--7--|
B--5--|-----------------------------|
G--6--|-----------------------------|
D--7--|-----------------------------|
A-----|-----------------------------|
E-----|-----------------------------|
                                                                                

    Guitarra2 ( 2x ) 00:15 (Acompanhada pelo baixo)
E-7--7--7--7--7--7--7--5--7--7--7--5--4--4--4--5--4--4--4--4--4--4--4--5--
B-------------------------------------------------------------------------
G-------------------------------------------------------------------------

E---7--7--7--5--4--4--4--5--|
B---------------------------|
G---------------------------|         




Início da parte Cantada. 00:43  ( Onde entram os acordes )
Acordes                 Baixo
E--x--|--0--|--0--|     G----------------------------|
B--2--|--0--|--0--|     D----------------------------|    
G--2--|--2--|--1--|     A--5-5-5-5-5-5--0-0-0--------|
D--0--|--2--|--2--|     E---------------------0-0-0--|
A-----|--0--|--2--|     
E-----|--x--|--0--|     


1:08 Entram os efeitos
Efeitos                          Harmônico 1:23       
E--7--7--|--5--5--|--5--7-|--7--|---(12)-----(7)--|
B--7--7--|--5--5--|--7--5-|--5--|-----------------|
G--------|--------|-------|--6--|-----------------|
D--------|--------|-------|-----|-----------------|


Solo 1:34
E---------------------------------|   Obs: O sinal ^ representa um
B---------------------------------|        bend de meio tom. (Uma nota acima)
G--4--4--4--4--4--4--5--5^--2--1--|
D------------------------------2--|
A------------------------------2--|
E---------------------------------|
                                                                                
 1:58 Segunda parte
Guitarra1               Baixo
E--x--|--0--|--0--|     G----------------------------|
B--2--|--0--|--0--|     D----------------------------|    
G--2--|--2--|--1--|     A--5-5-5-5-5-5--0-0-0--------|
D--0--|--2--|--2--|     E---------------------0-0-0--|
A-----|--0--|--2--|     
E-----|--x--|--0--|     

   Guitarra2
 2:03 Riff1             
E------------------|
B------------------|
G---------1--2--1--|
D------2-----------|
A------------------|
E------------------|

 2:23 Efeitos                         Harmônico         
E--7--7--|--5--5--|--5--7-|--7--|---(12)-----(7)--|
B--7--7--|--5--5--|--7--5-|--5--|-----------------|
G--------|--------|-------|--6--|-----------------|
D--------|--------|-------|-----|-----------------|

Solo 2:48
E---------------------------------|   Obs: O sinal ^ representa um
B---------------------------------|        bend de meio tom. (Uma nota acima)
G--4--4--4--4--4--4--5--5^--2--1--|
D------------------------------2--|
A------------------------------2--|
E---------------------------------|


Final 3:13
(Como na introdução junto com o baixo)
 Guitarra 1                               Baixo
E--7--7--7--7--7--7--7--7--7--|         G----------------------------|
B-----------------------------|         D----------------------------|
G-----------------------------|         A--5------------0------------|
D-----------------------------|         E---------------------0------|

 Guitarra 2 3:33
E--5--7-7-7-7-7--5--7-7-7-7-7-|         
B-----------------------------|         
G-----------------------------|         
D-----------------------------| 


Final 3:40
 Guitarra 1
E--7--7--7--7--7--7--7--7--7--|
B-----------------------------|
G-----------------------------|
D-----------------------------|

 Guitarra2 
E-7--7--7--7--7--7--7--5--7--7--7--5--4--4--4--5--4--4--4--4--4--4--4--5--
B-------------------------------------------------------------------------
G-------------------------------------------------------------------------

E---7--7--7--5--4--4--4--5--|
B---------------------------|
G---------------------------|         

Guitarra 3  (Efeitos)                            
E--7--7--|--5--5--|--5--7-|--7--|
B--7--7--|--5--5--|--7--5-|--5--|
G--------|--------|-------|--6--|
D--------|--------|-------|-----|




Intro...
 
    00:43
    D4/9                        A9       E
        doctors leaving for the holiday season
    D4/9                         A9           E
        got crystal ice picks no gift for the gab
    D4/9                         A9
        and in the parking lots
               E
        is the sedan he bought
           D4/9                A9              E
        he never, he never complains when it's hot
    1:08 (entram os efeitos)
    D4/9                                   A9
        he fowled a swollen daughter in a sauna
              E          D4/9    A9   E
        up on Tucson bridge
    D4/9                                  A9
        there soaking up the fauna doing blotters
          E            D4/9        A9
        I don't know which  which  which
                 E               D4/9 (1:34 inicia solo)  A9   E
        boys are dying on the streets
 
    (D4/9  A9  E) (solo)   
    
    1:58                                (2:03Riff1)
    D4/9                   A9          E         D4/9
        I know the medical world could knock you out
                                A9         E          D4/9
        sell the coins that you jayed last Thursday...hey
                           A9                E
        dine by candlelight and hold your savings tight
               D4/9                              A9            E
        you'll never, you'll never know when the bridge falls apart
    D4/9                                     A9
        you spoke of latent causes, sterile gauze's and 
            E         D4/9   A9   E
        the bedside morale
    D4/9                                 A9        E       D4/9             A9
        trapeze around the table talking sentences so incomplete   "play ...plete"
                  E              D4/9 (solo) A9  E
        boys are dying on the streets 

    (D4/9   A9   E) (solo)
    (Introdução)  (D4/9   A9   E) D4/9

    
Acordes:** -  eadgbe
        ||    ||||||
        E  -  022100
        D4/9- xx0220
        A9 -  x02200


        Tablaturado por Jean R.C. de Almeida    

        Outras tab's, Pink Floyd, Sonic Youth, The Breeders...
        Jean R. C. de Almeida.

        
Outros vídeos desta música
    2.798 exibições
      • ½ Tom
      • A
      • Bb
      • B
      • C
      • Db
      • D
      • Eb
      • E
      • F
      • F#
      • G
      • Ab
    • Adicionar à lista

    Afinação da cifra

    Afinador online

      0 comentários

      Ver todos os comentários

      Conseguiu tocar?

      0Tocaram0Ainda não

      Grave um vídeo tocando Grounded e nos envie!

      Toque também

      1. Imagem do artista Guided By VoicesPlanet Score Guided By Voices
      2. Imagem do artista Built To SpillCarry The Zero Built To Spill
      3. Imagem do artista Yo La TengoCenter Of Gravity Yo La Tengo
      4. Imagem do artista SebadohRebound Sebadoh

      Entre para o Cifra Club PRO

      Tenha acesso a benefícios exclusivos no App e no Site

      • Chega de anúncios

      • Badges exclusivas

      • Mais recursos no app do Afinador

      • Atendimento Prioritário

      • Aumente seu limite de lista

      • Ajude a produzir mais conteúdo

      Cifra Club Pro

      Aproveite o Cifra Club com benefícios exclusivos e sem anúncios
      Cifra Club Pro
      Aproveite o Cifra Club com benefícios exclusivos e sem anúncios
      Ops (: Contenido disponible sólo en portugués.
      OK