Cifra Club

Shoot The Singer 1 Sick Verse

Pavement

Cifra: Principal (violão e guitarra)
Selo Cifra Club: esta cifra foi revisada para atender aos critérios oficiais da nossa Equipe de Qualidade.
tom: Em
E|--------0-------0-------------------0-----------------0-------------------------------|
B|--------3----3------3----3------3------3----3-----3------3-----3----------------------|
G|--------0------0------0------0-0---0------0-----0-0---0-------0-----------------------|
D|--------2-----------------------------------------------------------------------------|
A|--------3-----------------------------------------------------------------------------|
E|--------0-----------------------------------------------------------------------------|
         Cmaj7

       pants                                      somebody 
E|--------3--------3-------------------3--------------------3---------------------------|
B|--------3---3-------3-----3-----3-------3-----3-----3---------3-------3---------------|
G|--------0------0-------0-----0-0----0-------0----0-0-----0----------0-----------------|
D|--------0-----------------------------------------------------------------------------|
A|--------2-----------------------------------------------------------------------------|
E|--------3-----------------------------------------------------------------------------|
          G

[Verse 1]
         painted over paint, painted  wood                  and where he
E|-------3----3----3----3----3----3---3----3----3----3---3---3---3----------------------|
B|-------3----3----3----3----3----3---3----3----3----3---3---3---3----------------------|
G|-------2----2----2----2----2----2---0----0----0----0---0---0---0----------------------|
D|-------2----2----2----2----2----2---2----2----0----0---0---2---2----------------------|
A|-------0----0----0----0----0----0---3----3----2----2---2---2---2----------------------|
E|-------x----x----x----x----x----x---0----0----3----3---3---0---0----------------------|
       Asus2                         Cmaj7      G            Em

        stood                                     no one
E|--------0-------0-------------------0-----------------0-------------------------------|
B|--------3----3------3----3------3------3----3-----3------3-----3----------------------|
G|--------0------0------0-----0--0---0------0----0--0---0-------0-----------------------|
D|--------2-----------------------------------------------------------------------------|
A|--------3-----------------------------------------------------------------------------|
E|--------0-----------------------------------------------------------------------------|
         Cmaj7

        stands                                          It's been
E|--------3--------3-------------------3--------------------3---------------------------|
B|--------3---3-------3-----3-----3-------3-----3-----3---------3-------3---------------|
G|--------0------0-------0-----0-0----0-------0----0-0-----0----------0-----------------|
D|--------0-----------------------------------------------------------------------------|
A|--------2-----------------------------------------------------------------------------|
E|--------3-----------------------------------------------------------------------------|
          G

        said he's sitting now In the churning  land
E|-------3----3----3----3----3----3---3----3----3------3---3----3-----------------------|
B|-------3----3----3----3----3----3---3----3----3------3---3----3-----------------------|
G|-------2----2----2----2----2----2---0----0----0------0---0----0-----------------------|
D|-------2----2----2----2----2----2---2----2----0------2---2----2-----------------------|
A|-------0----0----0----0----0----0---3----3----2------2---2----3-----------------------|
E|-------x----x----x----x----x----x---0----0----3------0---0----0-----------------------|
       Asus2                         Cmaj7      G      Em      Cmaj7


[Chorus]
    I've seen saints but remem-ber  that I forgot      to flag 'em
E|---3----3-----3-----3----3----3----3---3---3-----3-----3------3-----------------------|
B|---3----3-----3-----3----3----3----3---3---3-----3-----3------3-----------------------|
G|---0----0-----0-----0----0----0----0---0---0-----0-----0------0-----------------------|
D|---2----2-----2-----2----0----2----2---2---2-----2-----2------2-----------------------|
A|---3----3-----3-----3----2----2----2---2---3-----3-----3------3-----------------------|
E|---0----0-----0-----0----3----0----0---0---0-----0-----0------0-----------------------|
    Cmaj7                  G    Em          Cmaj7

    down   when they passed    and in the morning light    you hold that ashtray
E|---3----3-----3------3--------3-----3------3------3-------3-------3-----3-----3-------|
B|---3----3-----3------3--------3-----3------3------3-------3-------3-----3-----3-------|
G|---0----0-----0------0--------0-----0------0------0-------0-------0-----0-----0-------|
D|---0----0-----0------2--------2-----2------2------2-------2-------2-----0-----0-------|
A|---2----2-----2------2--------2-----2------3------3-------3-------3-----2-----2-------|
E|---3----3-----3------0--------0-----0------0------0-------0-------0-----3-----3-------|
     G                Em                    Cmaj7                         G

    tight  you can put it out         But I can't put it out             my hands
E|----3-----3----3----3----3-----3-----3------3------3----3---3---3----3-----3----------|
B|----3-----3----3----3----3-----3-----3------3------3----3---3---3----3-----3----------|
G|----0-----0----0----0----0-----0-----0------0------0----0---0---0----0-----0----------|
D|----2-----2----2----2----2-----2-----2------2------2----0---0---2----2-----2----------|
A|----2-----2----2----2----3-----3-----3------3------3----2---2---2----2-----2----------|
E|----0-----0----0----0----0-----0-----0------0------0----3---3---0----0-----0----------|
      Em                  Cmaj7                           G       Em


[Verse 2]

shook
            
Down and out
                                  
I've got the blisters of the world
          
World knew
                        
I named a book after you
          
So look up
                         
And watch the camera lens
                    
When the risers fade


[Chorus]

Slow it down
              
Song is sacred
           
And brother
             
You're a hunter
                        
And you're right at home
                        
And in the morning light
                          
I'll hold my ashtray tight
                  
I can take it down
                          
And you can't take it down


[Outro]

    Tadadadara tadada      Tadadadara tadada
E|-----3--------3-----------3-------3---------------------------------------------------|
B|-----3--------3-----------3-------3---------------------------------------------------|
G|-----0--------0-----------0-------0---------------------------------------------------|
D|-----2--------2-----------0-------2---------------------------------------------------|
A|-----3--------3-----------2-------2---------------------------------------------------|
E|-----0--------0-----------3-------0---------------------------------------------------|
      Cmaj7                 G       Em

    Tadadadara tadada  da  Tadadadara tadada
E|-----3--------3-----------3-------3---------------------------------------------------|
B|-----3--------3-----------3-------3---------------------------------------------------|
G|-----0--------0-----------0-------0---------------------------------------------------|
D|-----2--------2-----------0-------2---------------------------------------------------|
A|-----3--------3-----------2-------2---------------------------------------------------|
E|-----0--------0-----------3-------0---------------------------------------------------|
      Cmaj7                 G       Em

    Tadadadara tadada      Tadadadara tadada
E|-----3--------3-----------3-------3---------------------------------------------------|
B|-----3--------3-----------3-------3---------------------------------------------------|
G|-----0--------0-----------0-------0---------------------------------------------------|
D|-----2--------2-----------0-------2---------------------------------------------------|
A|-----3--------3-----------2-------2---------------------------------------------------|
E|-----0--------0-----------3-------0---------------------------------------------------|
      Cmaj7                 G       Em

    Tadadadara tada  Don't expect Dont expect
E|-----3--------3-----------3------3-----3---------------------------------------------------|
B|-----3--------3-----------3------3-----3---------------------------------------------------|
G|-----0--------0-----------0------0-----0---------------------------------------------------|
D|-----2--------2-----------0------0-----2---------------------------------------------------|
A|-----3--------3-----------2------2-----2---------------------------------------------------|
E|-----0--------0-----------3------3-----0---------------------------------------------------|
      Cmaj7                 G           Em
Outros vídeos desta música
    4 exibições
      • ½ Tom
      • Am
      • Bbm
      • Bm
      • Cm
      • C#m
      • Dm
      • Ebm
      • Em
      • Fm
      • F#m
      • Gm
      • G#m
    • Adicionar à lista

    Afinação da cifra

    Afinador online

      0 comentários

      Ver todos os comentários

      Conseguiu tocar?

      0Tocaram0Ainda não

      Grave um vídeo tocando Shoot The Singer 1 Sick Verse e nos envie!

      Toque também

      1. Imagem do artista Built To SpillCarry The Zero Built To Spill
      2. Imagem do artista Guided By VoicesPlanet Score Guided By Voices
      3. Imagem do artista Yo La TengoStockholm Syndrome Yo La Tengo
      4. Imagem do artista SebadohRebound Sebadoh

      Entre para o Cifra Club PRO

      Tenha acesso a benefícios exclusivos no App e no Site

      • Chega de anúncios

      • Badges exclusivas

      • Mais recursos no app do Afinador

      • Atendimento Prioritário

      • Aumente seu limite de lista

      • Ajude a produzir mais conteúdo

      Cifra Club Pro

      Aproveite o Cifra Club com benefícios exclusivos e sem anúncios
      Cifra Club Pro
      Aproveite o Cifra Club com benefícios exclusivos e sem anúncios
      Ops (: Contenido disponible sólo en portugués.
      OK