Cifra Club

Alive

Pearl Jam

Cifra: Principal
exibições 719.863
Tom: A
Intro:

Parte 1:
   A5
E|-----------------------------------------
B|-----------------------------------------
G|-2-2-2-----------------------------------
D|-2-2-2--------0-7h9~~~---7~~~------------
A|-0-0-0----5/7----------------------------
E|-----------------------------------------
   A5
E|-----------------------------------------
B|-----------------------------------------
G|-2-2-2-2---------------------------------
D|-2-2-2-2-------0-7h9~~~--7--9br-7--------
A|-0-0-0-0---5/7--------------------10\----
E|-----------------------------------------

Parte 2 - 3x:
   A5
E|-----------------------------------------
B|-----------------------------------------
G|-2---------------------------------------
D|-2--------0-7h9~~~---7~~~----------------
A|-0----5/7--------------------------------
E|-----------------------------------------
   A5
E|-----------------------------------------
B|-----------------------------------------
G|-2-2-2-2---------------------------------
D|-2-2-2-2-------0-7h9~~~--7--9br-7--------
A|-0-0-0-0---5/7--------------------10\----
E|-----------------------------------------

Passagem:
   F           C
E|-1-1-1-1---0-0---------------------------
B|-1-1-1-1---0-1---------------------------
G|-2-2-2-2-----0---------------------------
D|-3-3-3-3-----2---------------------------
A|-------------3---------------------------
E|-----------------------------------------

Primeira Parte:
   A5
E|-----------------------------------------
B|-----------------------------------------
G|-2---------------------------------------
D|-2--------0-7h9~~~---7~~~----------------
A|-0----5/7--------------------------------
E|-----------------------------------------
   A5
E|-----------------------------------------
B|-----------------------------------------
G|-2---------------------------------------
D|-2--------0-7h9~~~--7--9br-7-------------
A|-0----5/7--------------------10\---------
E|-----------------------------------------
   A5
E|-----------------------------------------
B|-----------------------------------------
G|-2---------------------------------------
D|-2--------0-7h9~~~---7~~~----------------
A|-0----5/7--------------------------------
E|-----------------------------------------
   A5
E|-----------------------------------------
B|-----------------------------------------
G|-2---------------------------------------
D|-2--------0-7h9~~~--7--9br-7-------------
A|-0----5/7--------------------10\---------
E|-----------------------------------------
   A5
E|-----------------------------------------
B|-----------------------------------------
G|-2-------------------7~~~----------------
D|-2--------0-7h9~~~-----------------------
A|-0----5/7--------------------------------
E|-----------------------------------------
   A5
E|-----------------------------------------
B|-----------------------------------------
G|-2---------------------------------------
D|-2--------0-7h9~~~--7--9br-7-------------
A|-0----5/7--------------------10\---------
E|-----------------------------------------
   A5
E|-----------------------------------------
B|-----------------------------------------
G|-2---------------------------------------
D|-2--------0-7h9~~~---7~~~----------------
A|-0----5/7--------------------------------
E|-----------------------------------------
   A5
E|-----------------------------------------
B|-----------------------------------------
G|-2---------------------------------------
D|-2--------0-7h9~~~--7--9br-7-------------
A|-0----5/7--------------------10\---------
E|-----------------------------------------
   F           C
E|-1-1-1-1---0-0-----1-1-1-1--0-0--0-0-0-0-
B|-1-1-1-1---0-1-----1-1-1-1--0-1--1-1-1-1-
G|-2-2-2-2-----0-----2-2-2-2----0--0-0-0-0-
D|-3-3-3-3-----2-----3-3-3-3----2--2-2-2-2-
A|-------------3----------------3--3-3-3-3-
E|-----------------------------------------

Son, she said,
Have I got a little story for you
What you thought was your daddy
Was nothin' but a...
While you were sittin'
Home alone at age thirteen
Your real daddy was dyin',
                  F      C
Sorry you didn't see him,
          F         C
but I'm glad we talked...

Refrão:
   E5     G5       D5
E|-------------------2-3-5-5-3-2-0---------
B|--------3--3---3-3-----------------------
G|--------0--0---0-2---------------0-4br-2-
D|-2--2-2-0--0-0-0-0-----------------------
A|-2--2-2-x--x-x---------------------------
E|-0--0-0-3--3-3---------------------------
   E5     G5       D5
E|-------------------2-3-5-5-3-2-0---------
B|--------3--3---3-3-----------------------
G|--------0--0---0-2---------------0-4br-2-
D|-2--2-2-0--0-0-0-0-----------------------
A|-2--2-2-x--x-x---------------------------
E|-0--0-0-3--3-3---------------------------
   E5     G5       D5
E|-------------------2-3-5-5-3-2-0---------
B|--------3--3---3-3-----------------------
G|--------0--0---0-2---------------0-4br-2-
D|-2--2-2-0--0-0-0-0-----------------------
A|-2--2-2-x--x-x---------------------------
E|-0--0-0-3--3-3---------------------------
   B5
E|-7-7-7-7---7-7-7-7-7-7-7-7-7-------------
B|-7-7-7-7---7-7-7-7-7-7-7-7-7-------------
G|-4-4-4-4---4-4-4-4-4-4-4-4-4-------------
D|-----------------------------------------
A|-----------------------------------------
E|-----------------------------------------

   E5 G5  D5
Oh I, oh, I'm still alive
     E5 G5  D5
Hey, I, oh, I'm still alive
    E5 G5  D5
Hey I, oh, I'm still alive
      B5
Hey...oh...

Segunda Parte - igual a primeira parte:

Oh, she walks slowly,
Across a young man's room
She said I'm ready... for you
I can't remember anything to this very day
'Cept the look, the look...
F                C
Oh, you know where,
    F        C
Now I can't see, I just stare...

Segundo Refrão:
   E5     G5       D5
E|-------------------2-3-5-5-3-2-0---------
B|--------3--3---3-3-----------------------
G|--------0--0---0-2---------------0-4br-2-
D|-2--2-2-0--0-0-0-0-----------------------
A|-2--2-2-x--x-x---------------------------
E|-0--0-0-3--3-3---------------------------
   E5     G5       D5
E|-------------------2-3-5-5-3-2-0---------
B|--------3--3---3-3-----------------------
G|--------0--0---0-2---------------0-4br-2-
D|-2--2-2-0--0-0-0-0-----------------------
A|-2--2-2-x--x-x---------------------------
E|-0--0-0-3--3-3---------------------------
   E5     G5       D5
E|-------------------2-3-5-5-3-2-0---------
B|--------3--3---3-3-----------------------
G|--------0--0---0-2---------------0-4br-2-
D|-2--2-2-0--0-0-0-0-----------------------
A|-2--2-2-x--x-x---------------------------
E|-0--0-0-3--3-3---------------------------
   E5     G5       D5
E|-------------------2-3-5-5-3-2-0---------
B|--------3--3---3-3-----------------------
G|--------0--0---0-2---------------0-4br-2-
D|-2--2-2-0--0-0-0-0-----------------------
A|-2--2-2-x--x-x---------------------------
E|-0--0-0-3--3-3---------------------------

E5 G5 D5
   I, I'm still alive
    E5  G5  D5
Hey I, but, I'm still alive
    E5  G5  D5
Hey I, boy, I'm still alive
    E5 G5  D5
Hey I, oh, I'm still alive, yeah

Ponte:
   B5                     F#
E|-7-7-7-7--7-7-7-7--7-7--6-----6--7--6--4-
B|-7-7-7-7--7-7-7-7--7-7--7-----7--7--7--7-
G|-4-4-4-4--4-4-4-4--4-4--6----------------
D|------------------------4---4------------
A|-----------------------------------------
E|-----------------------------------------
   B5                     F#
E|-7-7-7-7--7-7-7-7--7-7--6----------------
B|-7-7-7-7--7-7-7-7--7-7--7----------------
G|-4-4-4-4--4-4-4-4--4-4--6----------------   (3x)
D|------------------------4----------------
A|-----------------------------------------
E|-----------------------------------------

Terceira Parte:
   A     D5           A     A5(9)
E|-----------------------------------------
B|-2--0--3------------2--0-----0-----0-----
G|-2-----2------------2-----2----2-----2---
D|-2-----0------------2-----2------2-----2-
A|--------------------------0--------------
E|-----------------------------------------
   A     D5           A     A5(9)
E|-----------------------------------------
B|-2--0--3------------2--0-----0-----0-----
G|-2-----2------------2-----2----2-----2---
D|-2-----0------------2-----2------2-----2-
A|--------------------------0--------------
E|-----------------------------------------
   B     E5           B     B5(9)
E|-----------------------------------------
B|-4--2--5------------4--2-----2-----2-----
G|-4-----4------------4-----4----4-----4---
D|-4-----2------------4-----4------4-----4-
A|--------------------------2--------------
E|-----------------------------------------
   B     E5           B     B5(9)
E|-----------------------------------------
B|-4--2--5------------4--2-----------------
G|-4-----4------------4-----4--------------
D|-4-----2------------4-----4--------------
A|--------------------------2--------------
E|-----------------------------------------

Is something wrong, she said
Well of course there is
You're still alive, she said
Oh, and do I deserve to be
Is that the question
And if so...if so...who answers...who answers...

Terceiro Refrão:
   E5     G5       D5        A5(9)
E|-----------------------------0-0-0-0-0-0-
B|--------3--3---3-3--3-3--3-0-2-2-2-2-2-2-
G|--------0--0---0-2--2-2--2-2-2-2-2-2-2-2-   (4x)
D|-2--2-2-0--0-0-0-0--0-0--0-2-2-2-2-2-2-2-
A|-2--2-2-x--x-x-------------0-0-0-0-0-0-0-
E|-0--0-0-3--3-3---------------------------

E5 G5  D5          A5(9)
I, Oh, I'm still alive
    E5 G5  D5         A5(9)
Hey I, Oh, I'm still alive
    E5 G5  D5         A5(9)
Hey I, Oh, I'm still alive
    E5 G5               D5  A5(9)
Hey I, Hmm, I'm still alive,  yeah, yeah...

Solo:

(Parte 1)
E|---------------------------------------------------
B|-15b17r15-12--------------------------------14-----
G|-------------14b16r14-12-------12----12-----14-12--
D|-------------------------14-14----14----14---------
A|---------------------------------------------------
E|---------------------------------------------------

E|---------------------------------------------------
B|---------------------------------------------------
G|----12-14b16--14b16--14b16r14--12-14-12~~~---------
D|-14------------------------------------------------
A|---------------------------------------------------
E|---------------------------------------------------

E|-------------12------------------------------------
B|-12-------12----x-15b17--15p12----12---------------
G|----14b16----------------------14----14b16r14p12---
D|---------------------------------------------------
A|---------------------------------------------------
E|---------------------------------------------------

E|---------------------------------------------------
B|---------------------------------------------------
G|-14----12-14-12~~----------------------------------
D|----14-------------14-12---------------------------
A|-------------------------14-13-12-10-12-10-12b13~~-
E|---------------------------------------------------

(Parte 2)
E|-----------17b19~~-17b19r17-15------------12-------
B|--17b19~~----------------------17~~-12-15----------
G|---------------------------------------------15b16-
D|---------------------------------------------------
A|---------------------------------------------------
E|---------------------------------------------------

E|-15-12---------------------------------------------
B|-------12---------------------0--------------------
G|----------14h15p12-14-12~~~---2b4-----b4r2p0-2~~-0-
D|---------------------------------------------------
A|---------------------------------------------------
E|---------------------------------------------------

E|-------------3---3-5b7---5-3~~---------------------
B|-----3---3-5---5-----------------------------------
G|-2/4---4-------------------------------------------
D|---------------------------------------------------
A|---------------------------------------------------
E|---------------------------------------------------

(Parte 3)
E|---------------------------------------------------
B|--------12--12--12----------12--12--12-------------
G|-14b16-b16-b16-b16---14b16-b16-b16-b16-------------  (8x)
D|---------------------------------------------------
A|---------------------------------------------------
E|---------------------------------------------------

(Parte 4)
E|-------12-12-------12-12-12------------------------
B|-15b17-------15b17---------------------------------
G|---------------------------------------------------
D|---------------------------------------------------
A|---------------------------------------------------
E|---------------------------------------------------

E|-------15-15-------15-15-15------------------------
B|-18b20-------18b20---------------------------------
G|---------------------------------------------------
D|---------------------------------------------------
A|---------------------------------------------------
E|---------------------------------------------------

E|-------14-14-------14-14-14------------------------
B|-17b19-------17b19---------------------------------
G|---------------------------------------------------
D|---------------------------------------------------
A|---------------------------------------------------
E|---------------------------------------------------

E|-------12-12-------12-12-12------------------------
B|-15b17-------15b17---------------------------------
G|---------------------------------------------------
D|---------------------------------------------------
A|---------------------------------------------------
E|---------------------------------------------------

E|-------12-12-------12-12-12------------------------
B|-15b17-------15b17---------------------------------
G|---------------------------------------------------
D|---------------------------------------------------
A|---------------------------------------------------
E|---------------------------------------------------

E|-------15-15-------15-15-15------------------------
B|-18b20-------18b20---------------------------------
G|---------------------------------------------------
D|---------------------------------------------------
A|---------------------------------------------------
E|---------------------------------------------------

E|----15p12-------15p12-15b17-15~~-------------------
B|-15-------15-15------------------------------------
G|---------------------------------------------------
D|---------------------------------------------------
A|---------------------------------------------------
E|---------------------------------------------------

E|-15b17-15~--12-15-12-------------------------------
B|---------------------15-15b17~--15p12----12--------
G|--------------------------------------14----14b16~-
D|---------------------------------------------------
A|---------------------------------------------------
E|---------------------------------------------------

E|---------------------------------------------------
B|---------------------------------------------------
G|-b16r14-12----12-14-12-14-14-12~~~-----------------
D|-----------14----------14-14-----------------------
A|---------------------------------------------------
E|---------------------------------------------------

E|-------12-------------12-------------12------------
B|----------15p12----------15p12----------15p12------
G|-14b16----------14b16----------14b16---------------
D|---------------------------------------------------
A|---------------------------------------------------
E|---------------------------------------------------

E|-------12-------------12-------------12------------
B|----------15p12----------15p12----------15p12------
G|-14b16----------14b16----------14b16---------------
D|---------------------------------------------------
A|---------------------------------------------------
E|---------------------------------------------------

E|-------12-------------12---------------------------
B|----------15p12----------15p12-12------------------
G|-14b16----------14b16----------14b16~~-------------
D|---------------------------------------------------
A|---------------------------------------------------
E|---------------------------------------------------

(Parte 5)
E|---------------------------------------------------
B|---------------------------------------------------
G|-14-12~~------------14-12~~------------------------
D|-14-12~~-14-12------14-12~~-14-12------------------
A|---------------14~~---------------14~~-------------
E|---------------------------------------------------

E|-----------------------------12-12-------12-12-----
B|--------------------------12-----------------------
G|-14b16r14-12----12-14b16-----------14b16-----------
D|-------------14------------------------------------
A|---------------------------------------------------
E|---------------------------------------------------

E|--------15-------15-------15-------15-------15-----
B|--------15-------15-------15-------15-------15-----
G|-14b16-----14b16----14b16----14b16----14b16--------
D|---------------------------------------------------
A|---------------------------------------------------
E|---------------------------------------------------

E|-------15------------------------------------------
B|-------15------------------------------------------
G|-14b16----14b16-b16r14p13p12-12----12-14-14-14~-14-
D|--------------------------------14-----------------
A|---------------------------------------------------
E|---------------------------------------------------

E|---------------------------------------------------
B|---------------------------------------------------
G|-14-14~~-------------------------------------------
D|---------------------------------------------------
A|---------------------------------------------------
E|---------------------------------------------------

(Parte 6)
E|-0-0-0-15--0-0-0-3--0-0-0-15--0-0-0-3--0-0-0-15----
B|---------------------------------------------------
G|---------------------------------------------------
D|---------------------------------------------------
A|---------------------------------------------------
E|---------------------------------------------------

E|-0-0-0-3--0-0-0-17-0-0-12-0-0-0-0-17-0-0-12-0-0-0--
B|---------------------------------------------------
G|---------------------------------------------------
D|---------------------------------------------------
A|---------------------------------------------------
E|---------------------------------------------------

E|-0-17-0-0-12-15----15-----17b19-17~~-15-17-15~~----
B|----------------17---------------------------------
G|---------------------------------------------------
D|---------------------------------------------------
A|---------------------------------------------------
E|---------------------------------------------------

E|-12----------12----17b19-17~~-15-17-15~~-12--------
B|----15-12-15----15--------------------------15-12--
G|---------------------------------------------------
D|---------------------------------------------------
A|---------------------------------------------------
E|---------------------------------------------------

E|-------------------------------------12------------
B|-15-------------------------------12----15b17~~~~--
G|----14h15p14p12-14-12----12-14b16------------------
D|----------------------14---------------------------
A|---------------------------------------------------
E|---------------------------------------------------

(Parte 7)
E|-------12-------------12-------------12------------
B|----------15p12----------15p12----------15p12------
G|-14b16----------14b16----------14b16---------------
D|---------------------------------------------------
A|---------------------------------------------------
E|---------------------------------------------------

E|-------12-------------12---------------------------
B|----------15p12----------15p12---------------------
G|-14b16----------14b16----------14b16--14b16-b16----
D|---------------------------------------------------
A|---------------------------------------------------
E|---------------------------------------------------

E|---------------------------------------------------
B|---------------------------------------------------
G|-b16-b16-b16-b16-b16r14-12-----12~~----------------
D|---------------------------12----------------------
A|---------------------------------------------------
E|---------------------------------------------------

(Parte 8)
E|---------------------------------------------------
B|-12-------14----15------17---------17----17--------
G|-14b16~~~-16b18-17b19---19b21~~~---19b21-19b21~~~--
D|---------------------------------------------------
A|---------------------------------------------------
E|---------------------------------------------------

E|-12-------14----15-------17-------17---------------
B|-15b17~~~-17b19-18b20~~~-20b22~~~-20b22~~~-20b23---
G|---------------------------------------------------
D|---------------------------------------------------
A|---------------------------------------------------
E|---------------------------------------------------

E|---------------------------------------------------
B|-20b23r20~~-17--20-17~~~\--------------------------
G|---------------------------------------------------
D|---------------------------------------------------
A|---------------------------------------------------
E|---------------------------------------------------
Acordes para:
    Composição: Eddie Vedder / Stone GossardColaboração e revisão:
    • diana m
    • Vinícius Paciello
    • Daniel Gabrielli

    0 comentários

      mostrar mais comentários

      Conseguiu tocar?

      35tocaram1ainda não

      Grave um vídeo tocando Alive e mande pra gente!

      00:00 / 00:00
      outros vídeos desta música
      repetirqualidadeautomática
      Outro vídeos desta música
        00:00 / 00:00
        automática
        Capítulos
        • Início
        • Configuração dos Efeitos
        • Tocando a música
        • Acordes da Introdução
        • Tocando Introdução
        • Ensinando Introdução
        • Tocando Primeira Parte
        • Ensinando Primeira Parte
        • Acordes do Refrão
        • Tocando Refrão
        • Ensinando Refrão
        • Acordes da Ponte
        • Tocando Ponte
        • Ensinando Ponte
        • Acordes da Terceira Parte
        • Tocando Terceira Parte
        • Ensinando Terceira Parte
        • Acordes do Terceiro Refrão
        • Tocando Terceiro Refrão
        • Ensinando Terceiro Refrão
        • Tocando Solo
        • Ensinando Solo (Parte 1)
        • Ensinando Solo (Parte 2)
        • Ensinando Solo (Parte 3)
        • Ensinando Solo (Parte 4)
        • Ensinando Solo (Parte 5)
        • Ensinando Solo (Parte 6)
        • Ensinando Solo (Parte 7)
        • Ensinando Solo (Parte 8)
        • Encerramento
        OK