Cifra Club

Aprenda

Alive

Pearl Jam

Tab de baixo: Principal
Intro:
G|--------------|----------------------------|------------------|
D|--------------|*---------5/----------7\---*|------------------|
A|-0~~~~---12\0-|*-0-0-5/7-----0-0-5/7------*|-8-8-8-8-10-------|
E|--------------|----------------------------|------------8~~~~-|

Verse 1:
                              (x4)
G|----------------------------|--------------------|
D|*---------5/----------7\---*|*------------------*|
A|*-0-0-5/7-----0-0-5/7------*|*-8-8-8-8-10-------*|
E|----------------------------|-------------8~~~~--|

Chorus 1:
                                    (x3)
G|----------------------------------|---------------------|
D|*--------------------------------*|---------------------|
A|*-----------------5-5------------*|---------6-6-6-6-6/9-|
E|-12\0--3-3-3-3-3------5-5-5-5-5---|-7-7-7-7-------------|


Verse 2:
                              (x4)
G|----------------------------|--------------------|
D|*---------5/----------7\---*|*------------------*|
A|*-0-0-5/7-----0-0-5/7------*|*-8-8-8-8-10-------*|
E|----------------------------|-------------8~~~~--|

Chorus 2:     

G|----------------------------------|
D|*--------------------------------*|
A|*-----------------5-5------------*|
E|-12\0--3-3-3-3-3------5-5-5-5-5---|(x4)


Post-Chorus:

G|-------------------------|----------------------------|
D|-------------------------|----------------------------|
A|---------6-6-6-6-6/9-----|---------6-6-6-6-6/9--------|
E|-7-7-7-7-------------2~~-|-7-7-7-7-------------2/14~~-|

G|-------------------------|---------------------------|
D|-------------------------|------------------------4\-|
A|---------6-6-6-6-6/9-----|---------6-6-6-6-6/9-------|
E|-7-7-7-7-------------2~~-|-7-7-7-7-------------2~----|


Bridge:

G|----------------|-------------|-------------|
D|*--------------*|-------------|-------------|
A|*-4-2/5--4-7\5-*|-6-4/7-6-9\7-|-6-4/7-6-4/7-|
E|----------------|-------------|-------------|

Chorus 3:
            
G|----------------------------------|
D|*--------------------------------*|
A|*-----------------5-5------------*|
E|-12\0--3-3-3-3-3------5-5-5-5-5---|(x4)

Solo: 
        
G|----------------------------------|
D|*--------------------------------*|
A|*-----------------5-5------------*|
E|-12\0--3-3-3-3-3------5-5-5-5-5---|(x4)

The Outro is more or less the same as the chorus, just play some
of the notes an octave higher and add some of your own flare and what not.

This is the little end solo (if you'd even call it that).

G|-----------------------------21--------------|
D|-----------17----17-19/21-21----21-19-17-----|
A|-/19-17-19----19-------------------------19\-|
E|---------------------------------------------|

Composição de Eddie Vedder / Stone Gossard
Colaboração e revisão:
  • Gabriel Leite
54.077 exibições

0 comentários

Ver todos os comentários

Conseguiu tocar?

3 Tocaram 0 Ainda não

Grave um vídeo tocando Alive e nos envie!

00:00 / 00:00
Outros vídeos desta música
Repetir Qualidade Automático
Outros vídeos desta música
00:00 / 00:00
Automático

Cifra Club Pro

Aproveite o Cifra Club com benefícios exclusivos e sem anúncios
Cifra Club Pro
Aproveite o Cifra Club com benefícios exclusivos e sem anúncios
OK