Cifra Club

Aprenda

Better Man

Pearl Jam

Cifra: Principal (violão e guitarra)
tom: A
[Intro] D/F#  E/G#  D/F#  E/G#

  D/F#                    E7/G#
E|------------------------------------------|
B|--3--0-------3--0--------5--0---------5---|
G|--2----2-----2----2------4----4-----4---4-|
D|--0----------0-----------0----------------|
A|------------------------------------------|
E|2--------0-2--------0--4--------0-4-------|

E|0-----------------------------------------|
B|--5---4-----------------------------------|
G|----4-------------------------------------|
D|------------------------------------------|
A|------------------------------------------|
E|------------------------------------------|

  D/F#                    E7/G#
E|------------------------------------------|
B|--3--0-------3--0--------5--0---------5---|
G|--2----2-----2----2------4----4-----4---4-|
D|--0----------0-----------0----------------|
A|------------------------------------------|
E|2--------0-2--------0--4--------0-4-------|

E|0-----------------------------------------|
B|--5---4-----------------------------------|
G|----4-------------------------------------|
D|------------------------------------------|
A|------------------------------------------|
E|------------------------------------------|

[Primeira Parte] 

  D/F#                  E7/G#
E|------------------------------------------|
B|--3--0-------3-0--------5-0------5-0------|
G|--2----2-----2---2------4---4----4---4----|
D|--0----------0----------0--------0--------|
A|------------------------------------------|
E|2--------0-2-------0--4------0-4-------4--|

  D/F#                  E7/G#
E|------------------------------------------|
B|--3--0-------3-0--------5-0------5-0------|
G|--2----2-----2---2------4---4----4---4----|
D|--0----------0----------0--------0--------|
A|------------------------------------------|
E|2--------0-2-------0--4------0-4-------4--|

  F6/A       G/B       F6/A      G/B
E|------------------------------------------|
B|--6-6---6----8-8---8----6-6---6---8-8--8--|
G|--5---5------7---7------5---5-----7---7---|
D|--0----------0----------0---------0-------|
A|------------------------------------------|
E|5----------7----------5---------7--------7| 

D/F#                         E7/G#
     Waiting, watching the clock
                              D/F#
It's four o'clock, it's got stop
                   E7/G#
Tell him, take no more she practices her speech
      F6/A              G/B
As he opens the door, she rolls over
    F6/A                  G/B
Pretends to sleep as he looks her over

[Refrão]

D               A             G5        D
  She lies and says she's in love with him
              A         G5
Can't find a better man
D                A           G5       D
  She dreams in colour she dreams in red
              A      A4  A  
Can't find a better man
 A4    A      D      D4  D  
Can't find a better man
 D4    D      A      A4  A  A4  A  G5
Can't find a better man               ohh

( D/F#  E/G# )

[Segunda Parte]

D/F#                E7/G#
    Talking to herself there's no one else who needs
      D/F#                  
 To know
                   E7/G#
She Tells herself, ohh

D/F#                              E7/G#
     Memories, back when she was bold and strong

And waiting for
     F6/A     G/B          F6/A
The world to come along, swears she knew it now she
  G/B
Swears he's gone

[Refrão]

D               A             G5        D
  She lies and says she's in love with him
              A      G5
Can't find a better man
D                A           G5       D
  She dreams in colour she dreams in red
              A      G5
Can't find a better man

D               A              G5    D
  She lies and says she still loves him
              A      G5
Can't find a better man
D                A           G5       D
  She dreams in colour she dreams in red
              A      A4  A  
Can't find a better man

 A4    A      D      D4  D 
Can't find a better man
 D4    D      A         A4  A  A4  A  G5
Can't find a better man              

D               A  G5
  She loved him
D                 A         G5
  She don't want to leave this way
D                A      G5
  She feeds him,   yeah
D                       A     G5
  That's why she'll be back again
D               A         G5
  Can't find a better man
D               A         G5
  Can't find a better man
Composição de Eddie Vedder
Colaboração e revisão:
  • Leandro Sandim
535.647 exibições
    • ½ Tom
    • A
    • Bb
    • B
    • C
    • Db
    • D
    • Eb
    • E
    • F
    • F#
    • G
    • Ab
  • Adicionar à lista

    0 comentários

    Ver todos os comentários

    Conseguiu tocar?

    60 Tocaram 7 Ainda não

    Grave um vídeo tocando Better Man e nos envie!

    00:00 / 00:00
    Outros vídeos desta música
    Repetir Qualidade Automático
    Outros vídeos desta música
    00:00 / 00:00
    Automático
    Capítulos
    • Início
    • Tocando a música
    • Acordes da Introdução e Primeira Parte
    • Tocando Introdução e Primeira Parte
    • Ensinando Dedilhado Introdução
    • Ensinando Dedilhado Primeira Parte
    • Acordes do Refrão
    • Tocando Refrão
    • Ensinando ritmo do Refrão
    • Tocando Segunda Parte
    • Ensinando Dedilhado Segunda Parte
    • Ensinando ritmo Segunda Parte
    • Encerramento

    Cifra Club Pro

    Aproveite o Cifra Club com benefícios exclusivos e sem anúncios
    Cifra Club Pro
    Aproveite o Cifra Club com benefícios exclusivos e sem anúncios
    OK