Cifra Club

Big Wave

Pearl Jam

Cifra: Principal (violão e guitarra)
tom: C
s = slide                                    G1: Stone Gossard
~ = vibrato                                  G2: Mike McCready 
h = hammer on
p = pull of
b = bend
r = release
/X = slide crescente até a nota X
X/ = slide decrescente partindo da nota X


PARTE 1:

G1:
e|---------------------|----------------|----------------|----------------|
B|---------------------|----------------|----------------|----------------|
G|------8s10-----------|-8s10-----------|-8s10-----------|-8s10-----------|
D|------8s10--10--8-10-|-8s10--10--8-10-|-8s10--10--8-10-|-8s10--10--8-10-|
A|------6s8---10--8-10-|-6s8---10--8-10-|-6s8---10--8-10-|-6s8---10--8-10-|
E|-------------8--6--8-|--------8--6--8-|--------8--6--8-|--------8--6--8-|

G2:
e|---------------------|----------------|--/15~----------|----------------|
B|---------------------|----------------|----------------|----------------|
G|---------------------|----------------|----------------|----------------|
D|---------------------|----------------|----------------|----------------|
A|-15/-----------------|----------------|----------------|----------------|
E|-----/8~-------------|----------------|----------------|----------------|


G1:
 (      4X        )
e|----------------|----------------|----------------|----------------|----------------|
B|----------------|----------------|----------------|----------------|----------------|
G|-8s10-----------|-8s10-----------|-8s10-----------|-8s10-----------|-8s10-----------|
D|-8s10--10--8-10-|-8s10--10--8-10-|-8s10--10--8-10-|-8s10--10--8-10-|-8s10--10--8-10-|
A|-6s8---10--8-10-|-6s8---10--8-10-|-6s8---10--8-10-|-6s8---10--8-10-|-6s8---10--8-10-|
E|--------8--6--8-|--------8--6--8-|--------8--6--8-|--------8--6--8-|--------8--6--8-|

G2:
 (      4X        )
e|----------------|----------------|----------------|----------------|----------------|
B|----------------|----------------|----------------|----------------|----------------|
G|----------------|----------------|----------------|----------------|----------------|
D|----------------|----------------|----------------|----------------|----------------|
A|----------------|----------------|----------------|--/15~----------|-------15/3-----|
E|----------------|--/8~-----------|----------------|----------------|----------------|

Pré-Refrão:

G1:
e|------------------------------------------|----------------|------------------|
B|------------------------------------------|----------------|------------------|
G|-8-8-8-8-8-8-8-8--10-10-10-10-10-10-10-10-|-8s10-----------|-8---10-----------|
D|-8-8-8-8-8-8-8-8--10-10-10-10-10-10-10-10-|-8s10--10--8-10-|-8---10--10--8-10-|
A|-6-6-8-6-6-6-6-6---8--8--8--8--8--8--8--8-|-6s8---10--8-10-|-6----8--10--8-10-|
E|------------------------------------------|--------8--6--8-|----------8--6--8-|

G2:
e|------------------------------------------|----------------|------------------|
B|------------------------------------------|----------------|------------------|
G|------------------------------------------|----------------|------------------|
D|------------------------------------------|----------------|------------------|
A|-6~~--------------8~~---------------------|----------------|------------------|
E|------------------------------------------|----------------|------------------|

G1:
e|------------------------------------------|----------------|----------------|
B|------------------------------------------|----------------|----------------|
G|-8-8-8-8-8-8-8-8--10-10-10-10-10-10-10-10-|-8s10-----------|-8s10-----------|
D|-8-8-8-8-8-8-8-8--10-10-10-10-10-10-10-10-|-8s10--10--8-10-|-8s10--10--8-10-|
A|-6-6-8-6-6-6-6-6---8--8--8--8--8--8--8--8-|-6s8---10--8-10-|-6s8---10--8-10-|
E|------------------------------------------|--------8--6--8-|--------8--6--8-|

G2:
e|------------------------------------------|----------------|----------------|
B|------------------------------------------|----------------|----------------|
G|------------------------------------------|----------------|----------------|
D|------------------------------------------|----------------|----------------|
A|-6~~--------------8~~---------------------|----------------|----------------|
E|------------------------------------------|----------------|----------------|

Refrão:

G1:
 (                             2X                                 )
e|----------------------------------------------------------------|
B|----------------------------------------------------------------|
G|-8-8-8-8-8-8--10-10-10-10-10-10---------------------------------|
D|-8-6-8-8-8-8--10-10-10-10-10-10--10-10-10-10-10-10--5-5-5-5-5-5-|
A|-6-6-6-6-6-6---8--8--8--8--8--8--10-10-10-10-10-10--5-5-5-5-5-5-|
E|----------------------------------8--8--8--8--8--8--3-3-3-3-3-3-|

G2:
 (                             2X                                 )
e|----------------------------------------------------------------|
B|----------------------------------------------------------------|
G|----------------------------------------------------------------|
D|----------------------------------------------------------------|
A|-6~-------------8~----------------------------------------------|
E|----------------------------------8~-----------------3~---------|

G1:
e|---------------------------------------|
B|---------------------------------------|
G|---------------------------8-8-8-8-8-8-|
D|-6-6-6-6-6-6--8-8-8-8-8-8--8-8-8-8-8-8-|
A|-6-6-6-6-6-6--8-8-8-8-8-8--6-6-6-6-6-6-|
E|-4-4-4-4-4-4--6-6-6-6-6-6--------------|

G2:
e|---------------------------------------|
B|---------------------------------------|
G|---------------------------------------|
D|---------------------------------------|
A|---------------------------6-6-6-6-6-6-|
E|-4~-----------6~-----------------------|

PARTE 2:

G1: 
e|----------------|----------------|----------------|----------------|
B|----------------|----------------|----------------|----------------|
G|-8s10-----------|----------------|-8s10-----------|----------------|
D|-8s10--10--8-10-|-------10--8-10-|-8s10--10--8-10-|-------10--8-10-|
A|-6s8---10--8-10-|-------10--8-10-|-6s8---10--8-10-|-------10--8-10-|
E|--------8--6--8-|--------8--6--8-|--------8--6--8-|--------8--6--8-|

G2:
e|----------------|----------------|----------------|----------------|
B|----------------|----------------|----------------|----------------|
G|----------------|----------------|----------------|----------------|
D|----------------|----------------|----------------|----------------|
A|---15/1~--------|-1/3~-----------|----------------|-15/3~----------|
E|----------------|----------------|----------------|----------------|


G1:
 (      8X        )
e|----------------|
B|----------------|
G|-8s10-----------|
D|-8s10--10--8-10-|
A|-6s8---10--8-10-|
E|--------8--6--8-|

G2:
 (      8X        )
e|----------------|
B|----------------|
G|-8s10-----------|
D|-8s10--10--8-10-|
A|-6s8---10--8-10-|
E|--------8--6--8-|

Pré-Refrão

Refrão


Pré-Solo:

G1:
 (           2X             )
e|--------------------------|
B|-----5-5-5-5------8-8-8-8-| (palm mute)
G|-----7-7-7-7------9-9-9-9-|
D|--------------------------|
A|--------------------------|
E|--------------------------|

G2:
 (           2X             )
e|--------------------------|
B|--------------------------|
G|-7~~----------7h9~--------|
D|--------------------------|
A|--------------------------|
E|--------------------------|


Solo:

G1:
 (                             4X                                 )
e|----------------------------------------------------------------|
B|----------------------------------------------------------------|
G|-8-8-8-8-8-8--10-10-10-10-10-10---------------------------------|
D|-8-6-8-8-8-8--10-10-10-10-10-10--10-10-10-10-10-10--5-5-5-5-5-5-|
A|-6-6-6-6-6-6---8--8--8--8--8--8--10-10-10-10-10-10--5-5-5-5-5-5-|
E|----------------------------------8--8--8--8--8--8--3-3-3-3-3-3-|

G2:
e|----------------------------------------------------------------|
B|----------------------------------------------------------------|
G|---------------8-------8----8-10-10b12r10p8----8-10-10b12r10p8--|
D|-/10--10-10-10---10-10---10-----------------10------------------|
A|----------------------------------------------------------------|
E|----------------------------------------------------------------|

e|----------------------------------------------8----8----8----8--|
B|---------8-11-8h11p8----8h11p8----8h11p8-----11b--11b--11b--11b-|
G|-10~--10-------------10--------10--------10---------------------|
D|----------------------------------------------------------------|
A|----------------------------------------------------------------|
E|----------------------------------------------------------------|

e|-13b15-13b15-13b15r13p11----------------------------------------|
B|-------------------------13p11h13-------11h13p11-16p15p13-18b20-|
G|----------------------------------10h12-------------------------|
D|----------------------------------------------------------------|
A|----------------------------------------------------------------|
E|----------------------------------------------------------------|

e|-----------------------------------------13b15r13--13p11p8----8----------------------|
B|-18-18p16----16h18p16----16-16p13----13~-------------------11---10b12r10p8----8~-10~-|
G|----------17----------17----------15---------------------------------------10--------|
D|-------------------------------------------------------------------------------------|
A|-------------------------------------------------------------------------------------|
E|-------------------------------------------------------------------------------------|

G1:
e|---------------------------------------|
B|---------------------------------------|
G|---------------------------8-8-8-8-8-8-|
D|-6-6-6-6-6-6--8-8-8-8-8-8--8-8-8-8-8-8-|
A|-6-6-6-6-6-6--8-8-8-8-8-8--6-6-6-6-6-6-|
E|-4-4-4-4-4-4--6-6-6-6-6-6--------------|

G2:
e|------------------------------------------------------------------------------------------------|
B|--------------------------------8h11/13--15/16~-18-16-15-13-11h13~-13~-13~-15~-16~-18-16-15-13~-|
G|-8h10p8----8h10p8--8h10p8--8-10-----------------------------------------------------------------|
D|--------10-------10------10---------------------------------------------------------------------|
A|------------------------------------------------------------------------------------------------|
E|------------------------------------------------------------------------------------------------|

G1:
e|------------------------------|------------------------------|
B|------------------------------|------------------------------|
G|------------------------------|------------------------------|
D|------------------------------|------------------------------|
A|-5--7-----------5--5-7--------|-5--7-----------5--5-7--------|
E|-------7--5--7----------7-5-7-|-------7--5--7----------7-5-7-|

G2:(com delay e wah-wah)
e|------------------------------|------------------------------|
B|----------------6-------------|----------------8-------------|
G|----------------7-------------|----------------7-------------|
D|----------------9-------------|----------------9-------------|
A|------------------------------|------------------------------|
E|------------------------------|------------------------------|

G1:
e|------------------------------|------------------------------|------------------------------|
B|------------------------------|------------------------------|------------------------------|
G|------------------------------|------------------------------|------------------------------|
D|------------------------------|------------------------------|------------------------------|
A|-5--7-----------5--5-7--------|-5--7-----------5--5-7--------|-5--7-----------5--5-7--------|
E|-------7--5--7----------7-5-7-|-------7--5--7----------7-5-7-|-------7--5--7----------7-5-7-|

G2:
e|------------------------------|------------------------------|------------------------------|
B|-8~~~-------------------------|------------------------------|------------------------------|
G|------------------------------|------------------------------|------------------------------|
D|------------------------------|------------------------------|------------------------------|
A|------------------------------|------------------------------|------------------------------|
E|------------------------------|------------------------------|------------------------------|

G1:
e|------------------------------|------------------------------|------------------------------|
B|------------------------------|------------------------------|------------------------------|
G|------------------------------|------------------------------|------------------------------|
D|------------------------------|------------------------------|------------------------------|
A|-5--7-----------5--5-7--------|-5--7-----------5--5-7--------|-5--7-----------5--5-7--------|
E|-------7--5--7----------7-5-7-|-------7--5--7----------7-5-7-|-------7--5--7----------7-5-7-|

G2:
e|------------------------------|------------------------------|------------------------------|
B|------------------------------|------------------------------|------------------------------|
G|------------------------------|------------------------------|------------------------------|
D|------------------------------|------------------------------|------------------------------|
A|------------------------------|------------------------------|------------------------------|
E|------------------------------|------------------------------|------------------------------|

G1:
e|------------------------------|------------------------------|------------------------------|
B|------------------------------|------------------------------|------------------------------|
G|------------------------------|------------------------------|------------------------------|
D|------------------------------|------------------------------|------------------------------|
A|-5--7-----------5--5-7--------|-5--7-----------5--5-7--------|-5--7-----------5--5-7--------|
E|-------7--5--7----------7-5-7-|-------7--5--7----------7-5-7-|-------7--5--7----------7-5-7-|

G2:
e|------------------------------|------------------------------|------------------------------|
B|----------------8~~~----------|------------------------------|-8~~~-------------------------|
G|----------------7~~~----------|------------------------------|-7~~~-------------------------|
D|------------------------------|------------------------------|------------------------------|
A|------------------------------|------------------------------|------------------------------|
E|------------------------------|------------------------------|------------------------------|

G1:
e|------------------------------|------------------------------|------------------------------|
B|------------------------------|------------------------------|------------------------------|
G|------------------------------|------------------------------|------------------------------|
D|------------------------------|------------------------------|------------------------------|
A|-5--7-----------5--5-7--------|-5--7-----------5--5-7--------|-5--7-----------5--5-7--------|
E|-------7--5--7----------7-5-7-|-------7--5--7----------7-5-7-|-------7--5--7----------7-5-7-|

G2:
e|-17/--------------------------|------------------------------|------------------------------|
B|------------------------------|-13~~~------------------------|------------------------------|
G|------------------------------|--9~~~------------------------|------------------------------|
D|------------------------------|------------------------------|------------------------------|
A|------------------------------|------------------------------|------------------------------|
E|------------------------------|------------------------------|------------------------------|
00:00 / 00:00
Outros vídeos desta música
Repetir
Outros vídeos desta música
Composição de Eddie Vedder / Jeff Ament
Colaboração e revisão:
  • João Vidal
5.568 exibições
    • ½ Tom
    • A
    • Bb
    • B
    • C
    • Db
    • D
    • Eb
    • E
    • F
    • F#
    • G
    • Ab
  • Adicionar à lista

    0 comentários

    Ver todos os comentários

    Conseguiu tocar?

    0 Tocaram 0 Ainda não

    Grave um vídeo tocando Big Wave e nos envie!

    Entre para oCifra Club PRO

    Tenha acesso a benefícios exclusivos no App e no Site

    • Chega de anúncios

    • Prioridade de compra em lançamentos

    • Mais recursos no app do Afinador

    • Atendimento Prioritário

    • Descontos nos produtos Cifra Club

    • Ajude a produzir mais conteúdo

    00:00 / 00:00

    Cifra Club Pro

    Aproveite o Cifra Club com benefícios exclusivos e sem anúncios
    Cifra Club Pro
    Aproveite o Cifra Club com benefícios exclusivos e sem anúncios
    OK