Cifra Club

Do The Evolution

Pearl Jam

Cifra: Principal
exibições 120.766
Tom: A#
E|--------------------|-----------------|-----------------|-----------------|
B|--------------------|-----------------|-----------------|-----------------|
G|-x--0-------------8-|---0-----------8-|---0-----------8-|---0-----------8-|
D|-x--0-------------8-|---0-----------8-|---0-----------8-|---0-----------8-|
A|----x---8----8-10---|---x-8----8-10---|---x-8----8-10---|---x-8----8-10---|
E|---10-----10--------|-/10---10--------|-/10---10--------|-/10---10--------|
                                         Enter Guitar 2

E|-----------------|-----------------|-----------------|-----------------|---|
B|-----------------|-----------------|-----------------|-----------------|---|
G|--0------------8-|--0------------8-|--0------------8-|--0------------8-|---|
D|--0------------8-|--0------------8-|--0------------8-|--0------------8-|---|
A|--x--8----8-10---|--x--8----8-10---|--x--8----8-10---|--x--8----8-10---|---|
E|-10----10--------|-10----10--------|-10----10--------|-10----10--------|---|

E|--------------------------------|-----------------|-----------------|------|
B|--------------------------------|-----------------|-----------------|------|
G|--3--3--3--3--3--3--2--2-2--1-1-|--0------------8-|--0------------8-|------|
D|--2--2--2--2--2--2--1--1-1--0-0-|--0------------8-|--0------------8-|------|
A|--7--7--7--7--7--7--6--6-6--5-5-|--x--8----8-10---|--x--8----8-10---|------|
E|--8--8--8--8--8--8--7--7-7--6-6-|-10----10--------|-10----10--------|------|

E|-----------------|-----------------|----------------------------------|----|
B|-----------------|-----------------|----------------------------------|----|
G|--0------------8-|--0------------8-|--3--3--3--3--3--3--2--2-2--1--1--|----|
D|--0------------8-|--0------------8-|--2--2--2--2--2--2--1--1-1--0--0--|----|
A|--x--8----8-10---|--x--8----8-10---|--7--7--7--7--7--7--6--6-6--5--5--|----|
E|-10----10--------|-10----10--------|--8--8--8--8--8--8--7--7-7--6--6--|----|
                
E|-----------------|-----------------|----------------------------------|----|
B|-----------------|-----------------|----------------------------------|----|
G|--0------------8-|--0------------8-|--3--3--3--3--3--3--2--2-2--1--1--|----|
D|--0------------8-|--0------------8-|--2--2--2--2--2--2--1--1-1--0--0--|----|
A|--x--8----8-10---|--x--8----8-10---|--7--7--7--7--7--7--6--6-6--5--5--|----|
E|-10----10--------|-10----10--------|--8--8--8--8--8--8--7--7-7--6--6--|----|

E|-----------------|-----------------|---------------------------------------|
B|-----------------|-----------------|---------------------------------------|
G|--0------------8-|--0------------8-|---------------------------------------|
D|--0------------8-|--0------------8-|---------------------------------------|
A|--x--8----8-10---|--x--8----8-10---|---------------------------------------|
E|-10----10--------|-10----10--------|---------------------------------------|

E|---------------------------------------------------------------|-----------|
B|---------------------------------------------------------------|-----------|
G|---------------------------------------------------------------|-----------|
D|-3b-0-0--0--0-3b-0-0--0--0-2b-0---------0-2---------3b-0-2b-0--|-----------|
A|--------------------------------3--3--3-----3-1--0-------------|-----------|
E|---------------------------------------------------------------|-----------|
  Guitar 1

E|-0---0------0------0-----|---------------------------------|---------------|
B|-3-----3------3------3---|---/15--15-----------------------|---------------|
G|-2-------2------2------2-|-2-/14--14--14--14--14--14\------|---------------|
D|-0-----------------------|-0----------12--12--12--12\------|---------------|
A|-------------------------|-0-------------------------------|---------------|
E|-------------------------|---------------------------------|---------------|
Guitar 1<-simultaneamente-> Guitar2

E|---------------------------------------------------------------|-----------|
B|---------------------------------------------------------------|-----------|
G|---------------------------------------------------------------|-----------|
D|-3b-0-0--0--0-3b-0-0--0--0-2b-0---------0-2---------3b-0-2b-0--|-----------|
A|--------------------------------3--3--3-----3-1--0-------------|-----------|
E|---------------------------------------------------------------|-----------|
 Guitar 1

E|-0---0------0------0-----|---------------|----------------------------|----|
B|-3-----3------3------3---|----15-----15--|----------------------------|----|
G|-2-------2------2------2-|-2--14-----14--|----------------------------|----|
D|-0-----------------------|-0--12-----12--|-3b-0-0--0--0-3b-0-0--0--0--|----|
A|-------------------------|-0-------------|----------------------------|----|
E|-------------------------|---------------|----------------------------|----|
 Guitar 1                   Guitar 2        Guitar 1

E|-------------------------------------|-0---0------0------0------|----------|
B|-------------------------------------|-3-----3------3------3----|----------|
G|-------------------------------------|-2-------2------2------2--|----------|
D|-2b-0----------0-2---------3b-0-2b-0-|-0------------------------|----------|
A|------3--3---3-----3-1--0------------|--------------------------|----------|
E|-------------------------------------|--------------------------|----------|
                                       Guitar1

E|---------------|-------------------------------|-----------------|---------|
B|----15-----15--|-------------------------------|-----------------|---------|
G|-2--14-----14--|--3--3--3--3--3--3-2--2-2-1--1-|--0------------8-|---------|
D|-0--12-----12--|--2--2--2--2--2--2-1--1-1-0--0-|--0------------8-|---------|
A|-0-------------|--7--7--7--7--7--7-6--6-6-5--5-|--x--8----8-10---|---------|
E|---------------|--8--8--8--8--8--8-7--7-7-6--6-|-10----10--------|---------|
 Guitar 2                                                  

E|-----------------------------------|-0---0------0------0-----|-------------|
B|----15------15--15----15----15-15\-|-3-----3------3------3---|-------------|
G|-------------------16----15----14\-|-2-------2------2------2-|-------------|
D|-----------------------------------|-0-----------------------|-------------|
A|---------15------------------------|-------------------------|-------------|
E|-----------------------------------|-------------------------|-------------|

E|-------------------------------------------------------------|-------------|
B|-------------------------------------------------------------|-------------|
G|-------------------------------------------------------------|-------------|
D|-3b-0-0--0--0-3b-0-0--0--0-2b-0---------0-2--------3b-0-2b-0-|-------------|
A|--------------------------------3--3--3-----3-1-0------------|-------------|
E|-------------------------------------------------------------|-------------|

E|-0---0------0------0-----|----------------|----------------------------|---|
B|-3-----3------3------3---|-----15-----15--|----------------------------|---|
G|-2-------2------2------2-|-2---14-----14--|----------------------------|---|
D|-0-----------------------|-0---12-----12--|-3b-0-0--0--0-3b-0-0--0--0--|---|
A|-------------------------|-0--------------|----------------------------|---|
E|-------------------------|----------------|----------------------------|---|
 Guit.1                    Guit.2

E|-----------------------------------|-0---0------0------0-----|-------------|
B|-----------------------------------|-3-----3------3------3---|-------------|
G|-----------------------------------|-2-------2------2------2-|-------------|
D|-2b-0---------0-2--------3b-0-2b-0-|-0-----------------------|-------------|
A|------3--3--3-----3-1-0------------|-------------------------|-------------|
E|-----------------------------------|-------------------------|-------------|
                                      Guit.1

E|----------------------14--14\-|--------------------------------|-----------|
B|------15--15--15--15--15--15\-|--------------------------------|-----------|
G|-2----14--14--14--14----------|--3--3--3--3--3--3-2--2-2-1---1-|-----------|
D|-0----12--12--12--------------|--2--2--2--2--2--2-1--1-1-0---0-|-----------|
A|-0----------------------------|--7--7--7--7--7--7-6--6-6-5---5-|-----------|
E|------------------------------|--8--8--8--8--8--8-7--7-7-6---6-|-----------|
 Guit. 2                        

E|-----------------------------------------------------------------|---------|
B|-----------------------------------------------------------------|---------|
G|-10vvvvvvv-12b14vvvvvvv-14r12--p10h12p10h12b14r12p10-12p10----10-|---------|
D|-----------------------------------------------------------12----|---------|
A|-----------------------------------------------------------------|---------|
E|-----------------------------------------------------------------|---------|

E|--------------------------13-----|----------------|--------------------|---|
B|-13b15vvv-15--13h15p13p10----13b-|----------------|--------------------|---|
G|---------------------------------|-7b--10-7---5-7-|-----10-7---10-7vvv-|---|
D|---------------------------------|-7b--10-7---5-7-|-10b-10-7-7---------|---|
A|---------------------------------|----------8-----|--------------------|---|
E|---------------------------------|----------------|--------------------|---|

E|------------------|----------------------|---------------------------------|
B|------------------|----------------------|---------------------------------|
G|--0------------8--|--0------------8------|--3--3--3--3--3--3-2--2-2-1--1---|  (8x)
D|--0------------8--|--0------------8------|--2--2--2--2--2--2-1--1-1-0--0---|
A|--x--8----8-10----|--x--8----8-10--------|--7--7--7--7--7--7-6--6-6-5--5---|
E|-10----10---------|-10----10-------------|--8--8--8--8--8--8-7--7-7-6--6---|

E|-----------------|-----------------|-------------------------------|-------|
B|-----------------|-----------------|-------------------------------|-------|
G|--0------------8-|--0------------8-|--3--3--3--3--3--3-2--2-2-1--1-|-------|
D|--0------------8-|--0------------8-|--2--2--2--2--2--2-1--1-1-0--0-|-------|
A|--x--8----8-10---|--x--8----8-10---|--7--7--7--7--7--7-6--6-6-5--5-|-------|
E|-10----10--------|-10----10--------|--8--8--8--8--8--8-7--7-7-6--6-|-------|

E|------------------|--------------------------------------------------------|
B|------------------|--------------------------------------------------------|
G|--0------------8--|--------------------------------------------------------|
D|--0------------8--|--------------------------------------------------------|
A|--x--8----8-10----|--------------------------------------------------------|
E|-10----10---------|--------------------------------------------------------|
Acordes para:
    Composição: Eddie Vedder / Stone GossardColaboração e revisão:
    • Lucas Kappaun

    0 comentários

      mostrar mais comentários

      Conseguiu tocar?

      4tocaram0ainda não

      Grave um vídeo tocando Do The Evolution e mande pra gente!

      00:00 / 00:00
      outros vídeos desta música
      repetirqualidadeautomática
      Outro vídeos desta música
        00:00 / 00:00
        automática
        OK