Cifra Club

Future Days

Pearl Jam

Cifra: Principal (violão e guitarra)
Selo Cifra Club: esta cifra foi revisada para atender aos critérios oficiais da nossa Equipe de Qualidade.
tom: Db (forma dos acordes no tom de C) Capotraste na 1ª casa
[Intro] C  G/B  Am
        G  F  C  G
        C  G/B  Am
        G  F  C

[Tab - Intro]

Parte 1 de 3
   C    G/B  Am   G    F               C
E|---------------------0-------------0------|
B|-1----3----0----3------3-1---1-3----------|
G|-0----0----2----0----------0--------------|
D|---------------------3---------------2----|
A|-3----2----0-------------------------3----|
E|----------------3-------------------------|

Parte 2 de 3
   G
E|------------------------------------------|
B|-----1-3----------------------------------|
G|-0-2--------------------------------------|
D|------------------------------------------|
A|------------------------------------------|
E|-3----------------------------------------|

Parte 3 de 3
   C    G/B  Am   G    F               C
E|---------------------0--------------------|
B|-1----3----0----3------3-1---1-3---1------|
G|-0----0----2----0----------0-------0------|
D|---------------------3---------------2----|
A|-3----2----0-------------------------3----|
E|----------------3-------------------------|

[Primeira Parte]

[Tab - Primeira Parte]

Parte 1 de de 8
   C                    F
E|-0---1-0---------1---------------1--------|
B|-1-------3-1-----1--1-1----------1--1-----|
G|-0-----------0-2----2-2-0-0h2--2-2----2-0-|
D|-2-------------3----3-3-3-3----3--------0-|
A|-3----------------------------------------|
E|------------------------------------------|
                      ↑ ↓ ↑

Parte 2 de 8
   C
E|-------0----------------------------------|
B|-------1----------------------------------|
G|-0--------0-0-0---------------------------|
D|-2---2----2-2-0---------------------------|
A|-3---3----3-3-3---------------------------|
E|------------------------------------------|
            ↑ ↓ ↑

Parte 3 de 8
   C             F
E|-0---1-0-----------1--------------1-------|
B|-1-------3-1-------1-1-1----------1--1----|
G|-0-----------0-2-2---2-2-0-0h2--2------2-0|
D|-0h2-----------3---------3---------------0|
A|-3----------------------------------------|
E|------------------------------------------|
                       ↑ ↓ ↑

Parte 4 de 8
   C
E|-------0----------------------------------|
B|-------1----------------------------------|
G|-0--------0-0-0---------------------------|
D|-2---2----2-2-0---------------------------|
A|-3---3----3-3-3---------------------------|
E|------------------------------------------|
            ↑ ↓ ↑

Parte 5 de 8
   C                  F
E|-------------------------1----------------|
B|-1------1----1-1---------1---1-1-1--------|
G|-0------0----0-0-0--2--2-2---2-2-0--------|
D|-0h2----2----2-2-0--3--3-----3-3-3--------|
A|-3----3-----------------------------------|
E|------------------------------------------|
               ↑ ↓ ↑           ↑ ↓ ↑  

Parte 6 de 8
                    C
E|--------1-----------------3---3-3-0-------|
B|--------1---1-1-1---------1---1-1-1-------|
G|-0h2--2-2---2-2-0---------0---0-0-0-------|
D|-3----3-----3-3-3-0h2---2-----------------|
A|------------------3-----3-----------------|
E|------------------------------------------|
              ↑ ↓ ↑            ↑ ↓ ↑

Parte 7 de 8
  C                   F
E|-------------------------1----------------|
B|-1------1----1-1-1-------1---1-1-1--------|
G|-0------0----0-0-0--2--2-2---2-2-0--------|
D|-0h2--2-2----2-2-0--3--3-----3-3-3--------|
A|-3----3-----------------------------------|
E|------------------------------------------|
               ↑ ↓ ↑           ↑ ↓ ↑

Parte 8 de 8
                    C
E|--------1---------------------------------|
B|--------1---1-1-1---------1---1-1-1-------|
G|-0h2--2-2---2-2-0---------0---0-0-0-------|
D|-3----3-----3-3-3-0h2---2-2---2-2-2-------|
A|------------------3-----3-----------------|
E|------------------------------------------|
              ↑ ↓ ↑             ↑ ↓ ↑

                   F
If I ever were to lose you
                   C
I'd surely lose myself
                   F
Everything I have found, dear
                   C
I've not found by myself
                   F
Try and sometimes you'll succeed
                 C
To make this man of me
               F
All my stolen missing parts
                     C
I've no need for anymore

[Refrão]

[Tab - Refrão]

Parte 1 de 4
   C       C9/B
E|------------------------------------------|
B|-1---1-1-1-----1-------1-------1-------1--|
G|-0---0-0-0---------0-------0-------0------|
D|-2---2-0-0-----------0-------0-------0----|
A|-3-------2---2-------2-------2-------2----|
E|------------------------------------------|
   ↓   ↓ ↑ ↓  

Parte 2 de 4
   F               C
E|-1-----1-1-3-----0-----0------------------|
B|-1-----1-1-------1-----1---1-1-1----------|
G|-2---2-2-2-------0-----0---0-0-0----------|
D|-3---3-3-3-------2-----2---2-2-0----------|
A|-----------------3------------------------|
E|------------------------------------------|
   ↓   ↓ ↑ ↓       ↓     ↓   ↓ ↑ ↓   

Parte 3 de 4
   C       C9/B    Am
E|---------------------0--------------------|
B|-----1-1-----1-1-----1-0---1--------------|
G|-0---0-0-0---0-0-2---2-2---2--------------|
D|-2---2-2-0---0-0-2-----2---2--------------|
A|-3-------2-------0------------------------|
E|------------------------------------------|
  ↓    ↓ ↑ ↓  ↓ ↑  ↓   ↓ ↑   ↑

Parte 4 de 4
   F               C 
E|-------1----------------------------------|
B|-1---1-1---1-1-1-1---------1-1-1----------|
G|-2---2-2---2-2-0-0---------0-0-0----------|
D|-3---3-----3-3-3-0h2-------2-2-2----------|
A|-----------------3---------3-3-3----------|
E|------------------------------------------|
   ↓   ↓ ↑   ↑ ↓ ↑ ↓         ↑ ↓ ↑

      C9/B
I believe
          F                  C 
And I believe, 'cause I can see
     C9/B   Am 
Our future days
 F               C
Days of you and me

( C  F  C  F )

[Tab - Passagem]

Parte 1 de de 4
   C                    F
E|-0----1-0---------1---------------1-------|
B|-1--------3-1-----1--1-1----------1--1----|
G|-0------------0-2----2-2-0-0h2--2-2----2-0|
D|-2--------------3----3-3-3---------------0|
A|-3--3-------------------------------------|
E|------------------------------------------|
                       ↑ ↓ ↑           ↑ ↓ ↑
Parte 2 de 4
   C
E|-------0----------------------------------|
B|-------1----------------------------------|
G|-0--------0-0-0---------------------------|
D|-2---2----2-2-0---------------------------|
A|-3---3----3-3-3---------------------------|
E|------------------------------------------|
            ↑ ↓ ↑

Parte 3 de 4
   C                    F
E|-0-----1-0-----------1-------------1------|
B|-1---------3-1-------1-1-1---------1-1----|
G|-0-------------0-2-2---2-2-0-0h2-2-----2-0|
D|-0h2-------------3-3-------3-------------0|
A|-3---3------------------------------------|
E|------------------------------------------|
                       ↑ ↓ ↑           ↑ ↓ ↑
Parte 4 de 4
   C
E|-------0----------------------------------|
B|-------1----------------------------------|
G|-0--------0-0-0---------------------------|
D|-2---2----2-2-2---------------------------|
A|-3---3----3-3-3---------------------------|
E|------------------------------------------|

[Segunda Parte]

[Tab - Segunda Parte]

Parte 1 de de 8
   C                    F
E|-0----1-0---------1---------------1-------|
B|-1--------3-1-----1--1-1----------1--1----|
G|-0------------0-2----2-2-0-0h2--2-2----2-0|
D|-2--------------3----3-3-3---------------0|
A|-3--3-------------------------------------|
E|------------------------------------------|
                       ↑ ↓ ↑           ↑ ↓ ↑
Parte 2 de 8
   C
E|-------0----------------------------------|
B|-------1----------------------------------|
G|-0--------0-0-0---------------------------|
D|-2---2----2-2-0---------------------------|
A|-3---3----3-3-3---------------------------|
E|------------------------------------------|
            ↑ ↓ ↑

Parte 3 de 8
   C                    F
E|-0-----1-0-----------1-------------1------|
B|-1---------3-1-------1-1-1---------1-1----|
G|-0-------------0-2-2---2-2-0-0h2-2-----2-0|
D|-0h2-------------3-3-------3-------------0|
A|-3---3------------------------------------|
E|------------------------------------------|
                       ↑ ↓ ↑           ↑ ↓ ↑
Parte 4 de 8
   C
E|-------0----------------------------------|
B|-------1----------------------------------|
G|-0--------0-0-0---------------------------|
D|-2---2----2-2-0---------------------------|
A|-3---3----3-3-3---------------------------|
E|------------------------------------------|

Parte 5 de 8
   C                  F
E|-------------------------1----------------|
B|-1------1----1-1---------1---1-1-1--------|
G|-0------0----0-0-0--2--2-2---2-2-0--------|
D|-0h2----2----2-2-0--3--3-----3-3-3--------|
A|-3----3-----------------------------------|
E|------------------------------------------|
               ↑ ↓ ↑           ↑ ↓ ↑  

Parte 6 de 8
                    C
E|--------1-----------------3---3-3-0-------|
B|--------1---1-1-1---------1---1-1-1-------|
G|-0h2--2-2---2-2-0---------0---0-0-0-------|
D|-3----3-----3-3-3-0h2---2-----------------|
A|------------------3-----3-----------------|
E|------------------------------------------|
              ↑ ↓ ↑            ↑ ↓ ↑

Parte 7 de 8
   C                  F
E|-------------------------1----------------|
B|-1------1----1-1-1-------1---1-1-1--------|
G|-0------0----0-0-0--2--2-2---2-2-0--------|
D|-0h2--2-2----2-2-0--3--3-----3-3-3--------|
A|-3----3-----------------------------------|
E|------------------------------------------|
               ↑ ↓ ↑           ↑ ↓ ↑

Parte 8 de 8
                    C
E|--------1---------------------------------|
B|--------1---1-1-1---------1---1-1-1-------|
G|-0h2--2-2---2-2-0---------0---0-0-0-------|
D|-3----3-----3-3-3-0h2---2-2---2-2-2-------|
A|------------------3-----3-----------------|
E|------------------------------------------|
              ↑ ↓ ↑             ↑ ↓ ↑

 C                        F
Back when I was feeling broken
             C
I focused on a prayer
                     F 
You came deep as any ocean
                      C
Did something out there hear?
                     F
All the complexities and games
                           C
No one wins, but somehow they're still played
                         F
All the missing crooked hearts
                                  C
They may die, but in us they live on

[Refrão]

[Tab - Refrão]

Parte 4 de 4 (variação)
   F              C            
E|-------1---------------3---3---3---3-3-3--|
B|-1---1-1--1-1-1-1------1---1---1---1-1-1--|
G|-2---2-2--2-2-0-0------0---0---0---0-0-0--|
D|-3---3----3-3-3-0h2----2---2---2---2-2-2--|
A|----------------3----3---3---3---3--------|
E|------------------------------------------|
   ↓   ↓ ↑  ↑ ↓ ↑ ↓   

      C9/B
I believe
          F              C 
And I believe, 'cause I can see
     C9/B   Am 
Our future days
 F               C
Days of you and me 

[Terceira Parte]

[Tab - Terceira Parte]

Parte 1 de 4
   G               Am
E|-3-----3---3-3-3-0-----0---0-0-0-----------|
B|-0-----0---0-0-0-1-----1---1-1-1-----------|
G|-0-----0---0-0-0-2-----2---2-2-2-----------|
D|-0-----0---0-0-0-2-----2---2-2-2-----------|
A|-----------------0---0---------------------|
E|-3---3-------------------------------------|
   ↓   ↓ ↑   ↑ ↓ ↑ ↓   ↓ ↑   ↑ ↓ ↑

Parte 2 de 4
   G               C
E|-3-----3---3-3-3-0-----0---0-0-0-----------|
B|-0-----0---0-0-0-1-----1---1-1-1-----------|
G|-0-----0---0-0-0-0-----0---0-0-0-----------|
D|-0-----0---0-0-0-2-----2---2-2-2-----------|
A|-----------------3---3---------------------|
E|-3---3-------------------------------------|
   ↓   ↓ ↑   ↑ ↓ ↑ ↓   ↓ ↑   ↑ ↓ ↑

Parte 3 de 4
   G               Am
E|-3-----3---3-3-3-0-----0---0-0-0-----------|
B|-0-----0---0-0-0-1-----1---1-1-1-----------|
G|-0-----0---0-0-0-2-----2---2-2-2-----------|
D|-0-----0---0-0-0-2-----2---2-2-2-----------|
A|-----------------0---0---------------------|
E|-3---3-------------------------------------|
   ↓   ↓ ↑   ↑ ↓ ↑ ↓   ↓ ↑   ↑ ↓ ↑

Parte 4 de 4
   F               G               G7
E|-1-----1---1-1-1-3-----3---3-3-3-1---------|
B|-1-----1---1-1-1-0-----0---0-0-0-0---------|
G|-2-----2---2-2-2-0-----0---0-0-0-0---------|
D|-3---|-3---3-3-3-------0---0-0-0-0---------|
A|-------------------------------------------|
E|-----3-----------3---3-----------3---------|
   ↓   ↓ ↑   ↑ ↓ ↑ ↓   ↓ ↑   ↑ ↓ ↑ ↓

      G              Am    
When hurricanes and cyclones raged
      G                    C
When winds turned dirt to dust
       G                  Am
When floods they came or tides they raised
     F               G  G7 
Ever   closer became us

[Quarta Parte]

C                    F
All the promises at sundown
                          C
I've meant them like the rest
                        F
All the demons used to come round
                   C
I'm grateful now they've left

              F
So persistent in my ways
                           C
Hey, angel, I am here to stay
                F
No resistance, no alarms
                               C
Please, this is just too good to be gone

[Refrão]

[Tab - Refrão Final]

Parte 1 de 6
   C       C9/B
E|------------------------------------------|
B|-1---1-1-1-----1-------1-------1-------1--|
G|-0---0-0-0---------0-------0-------0------|
D|-2---2-0-0-----------0-------0-------0----|
A|-3-------2---2-------2-------2-------2----|
E|------------------------------------------|
   ↓   ↓ ↑ ↓  

Parte 2 de 6
   F               C
E|-1-----1-1---3---0-----0------------------|
B|-1-----1-1-------1-----1---1-1-1----------|
G|-2---2-2-2-------0-----0---0-0-0----------|
D|-3---3-3-3-------0-----2---2-2-2----------|
A|-----------------3------------------------|
E|------------------------------------------|
   ↓   ↓ ↑ ↓                 ↓ ↑ ↓   

Parte 3 de 6
   C       C9/B    Am
E|---------------------0-----0--------------|
B|-----1-1-----1-1-----1-0---1--------------|
G|-0---0-0-0---0-0-2---2-2---2--------------|
D|-2---2-2-0---0-0-2-----2---2--------------|
A|-3-------2-------0-----0------------------|
E|------------------------------------------|
  ↓    ↓ ↑ ↓  ↓ ↑  ↓   ↓ ↑   ↑

Parte 4 de 6
   F               C 
E|-------1--------------0-------------------|
B|-1---1-1---1-1-1-1----1----1-1-1----------|
G|-2---2-2---2-2-0-0----0----0-0-0----------|
D|-3---3-----3-3-3-2--2------2-2-2----------|
A|-----------------3--3------3-3-3----------|
E|------------------------------------------|
   ↓   ↓ ↑   ↑ ↓ ↑ ↓  ↓ ↑    ↑ ↓ ↑

Parte 4 de 6
   F               C 
E|-------1--------------0-------------------|
B|-1---1-1---1-1-1-1----1----1-1-1----------|
G|-2---2-2---2-2-0-0----0----0-0-0----------|
D|-3---3-----3-3-3-2--2------2-2-2----------|
A|-----------------3--3------3-3-3----------|
E|------------------------------------------|
   ↓   ↓ ↑   ↑ ↓ ↑ ↓  ↓ ↑    ↑ ↓ ↑

Parte 6 de 6
   F               C 
E|------------------------------------------|
B|-1---------1-1-1-1-------1-1-1-1----------|
G|-2---------2-2-0-0-------0-0-0-0----------|
D|-3---------3-3-3-0h2-----0-0-0-0h2--------|
A|-----------------3-------3-3-3-3----------|
E|------------------------------------------|
   ↓   ↓ ↑   ↑ ↓ ↑ ↓       ↑ ↓ ↑ ↑

      C9/B
I believe
          F                  C 
And I believe, 'cause I can see
     C9/B   Am 
Our future days
 F               C
Days of you and me 
F          C
  You and me
 F               C
Days of you and me

[Final] C  G/B  Am
        G  F  C  G
        C  G/B  Am
        G  F  C

[Tab - Final]

Parte 1 de 4
   C    G/B       Am      G     
E|------0---------------0-0-----------------|
B|-1------3-1-0---0-1-3-----3-1-0-----------|
G|-0------------0-2-------------------------|
D|------------------------------------------|
A|-3----2---------0-------------------------|
E|------------------------3-----------------|

Parte 2 de 4
   F               C  G
E|-0---------------0------------------------|
B|---3-1---1---1-3---------1-3--------------|
G|-------0---0---------0-2------------------|
D|-3----------------------------------------|
A|-----------------3------------------------|
E|---------------------3--------------------|

Parte 3 de 4
   C    G/B       Am      G     
E|------0---------------0-0-----------------|
B|-1------3-1-0---0-1-3-----3-1-0-----------|
G|-0------------0-2-------------------------|
D|------------------------------------------|
A|-3----2---------0-------------------------|
E|------------------------3-----------------|

Parte 4 de 4
   F               C 
E|-0---------------0------------------------|
B|---3-1---1---1-3-1------------------------|
G|-------0---0-----0------------------------|
D|-3---------------0h2----------------------|
A|-----------------3------------------------|
E|------------------------------------------|
Outros vídeos desta música
    159.135 exibições
    • Simplificar cifra
      • ½ Tom
      • A
      • Bb
      • B
      • C
      • Db
      • D
      • Eb
      • E
      • F
      • F#
      • G
      • Ab
    • Adicionar à lista

    Afinação da cifra

    Afinador online

      0 comentários

      Ver todos os comentários

      Entre para o Cifra Club PRO

      Tenha acesso a benefícios exclusivos no App e no Site

      • Chega de anúncios

      • Badges exclusivas

      • Mais recursos no app do Afinador

      • Atendimento Prioritário

      • Aumente seu limite de lista

      • Ajude a produzir mais conteúdo

      Capítulos
      • Apresentação
      • Dicas Sobre a Tonalidade
      • Tocando a Música
      • Acordes da Música
      • Tocando a Intro
      • Ensinando a Intro
      • Tocando a Primeira Parte
      • Ensinando a Primeira Parte
      • Acorde do Refrão
      • Tocando o Refrão
      • Ensinando o Refrão
      • Dicas das Partes Seguintes
      • Ensinando a Passagem
      • Tocando a Segunda Parte
      • Ensinando a Variação da Quarta Parte do Refrão
      • Acordes da Terceira Parte
      • Ensinando a Terceira Parte
      • Ensinando a Passagem Final
      • Encerramento

      Cifra Club Pro

      Aproveite o Cifra Club com benefícios exclusivos e sem anúncios
      Cifra Club Pro
      Aproveite o Cifra Club com benefícios exclusivos e sem anúncios
      Ops (: Contenido disponible sólo en portugués.
      OK