Cifra Club

Ghost

Pearl Jam

Cifra: Principal (violão e guitarra)
tom: B
intro/chorus:
----------------------------|-------------------------------------------------
----------------------------|-------------------------------------------------
-4--4---4-4--4---7--7--7-7--|--11-11-11-11------------------------------------
-4--4---4-4--4---7--7--7-7--|--11-11-11-11------------------------------------
-2--2---2-2--2---5--5--5-5--|--9--9--9--9-------------------------------------
----------------------------|-------------------------------------------------
                                                                              

chorus:
g1:
------------------------------------------------------------------------------
------------------------------------------------------------------------------
-------------------------------------------------------0----------------------
------------------4vv--------------------------4vv-----0----------------------
-------2--------2-----------2-------------2--5---------2----------------------
--3--3---3--2vv--------3--3---3--2----3vv----------3---3----------------------
                                                                              
g2:
------------------------------------------------------------------------------
------------------------------------------------------------------------------
------------------------------------------------------------------------------
--5---------4----------5---------4----5--------4------------------------------
--5---------4----------5---------4----5--------4------------------------------
--3---------2----------3---------2----3--------2------------------------------
                                                                              

solo 1:
---------------------------------------7------7-------------------------------
-------------------------------------7---10b----10-7-10-7---------------------
---------------------7-9-9br-7---7-9----------------------9brp7---7-9-9b-7-9--
-----------------7-9-----------9--------------------------------9-------------
----------5-7-9---------------------------------------------------------------
--0---5h7---------------------------------------------------------------------
                                                                              

---------------10----------10--------------------------10-12b-10----12b-------
----10/12vv-12----13p12p10----13p12p10-10h12-10h12b-10-----------12-----------
-7----------------------------------------------------------------------------
------------------------------------------------------------------------------
------------------------------------------------------------------------------
------------------------------------------------------------------------------
                                                                              

solo 2:
--------------------------------7--7-7-7--------7-----7-10p7----7--7----------
--------------------------------7--7-7-7----------10b--------10------10-------
------7--7v---7-9brp7---7--7-9b----9b9b9b----9b-------------------------------
--7h9-------9---------9--------------------9----------------------------------
------------------------------------------------------------------------------
------------------------------------------------------------------------------
                                 |repeat|                                     

-----------------------------10-12bp10----10-10h12p10----10-------------------
-7h10p7----------------10-12-----------12-------------12----12v-12p10\7---7---
--------9p7---7-9-9/11--------------------------------------------------9-----
------------9-----------------------------------------------------------------
------------------------------------------------------------------------------
------------------------------------------------------------------------------
                                                                              

------------------------------------------------------------------------------
-10-12-10---7--7--7--7---7----------------------------------------------------
----------9-9b-9b-9b-9b----7h9p7---7----7--6--4--2--4-7--6-4--2/4/6/7/9brvv---
---------------------------------9---9----------------------------------------
------------------------------------------------------------------------------
------------------------------------------------------------------------------
                                                                              

solo 3:
------------------------------------------------------------------------------
------------------------------------------------------------------------------
-11-11-11-11-11-11-11-11-9-9-9-9-7-7--11-11-11-11-11-11-9-9-7-7-6-7-7-6-4-----
------------------------------------------------------------------------------
------------------------------------------------------------------------------
------------------------------------------------------------------------------
                                                                              

------------------------------------7---------7-7h10p7----7-7-7h10p7----7-----
----------------------------------7---10b-10b----------10------------10-------
-6/7-2-4-6-4-4-6-4-6-7/9-7---7-9b---------------------------------------------
------------------------------------------------------------------------------
------------------------------------------------------------------------------
------------------------------------------------------------------------------
     repeat------------->                                                     

------------------------------------------------------------------------------
--10-7------------7-----------------------------------------------------------
-------9bp7---7-9-9b----------------------------------------------------------
------------9-----------------------------------------------------------------
------------------------------------------------------------------------------
------------------------------------------------------------------------------
00:00 / 00:00
Outros vídeos desta música
Repetir
Outros vídeos desta música
Composição de Eddie Vedder / Jeff Ament
Colaboração e revisão:
  • Unknow
9.332 exibições
    • ½ Tom
    • A
    • Bb
    • B
    • C
    • Db
    • D
    • Eb
    • E
    • F
    • F#
    • G
    • Ab
  • Adicionar à lista

    0 comentários

    Ver todos os comentários

    Conseguiu tocar?

    0 Tocaram 0 Ainda não

    Grave um vídeo tocando Ghost e nos envie!

    Entre para oCifra Club PRO

    Tenha acesso a benefícios exclusivos no App e no Site

    • Chega de anúncios

    • Prioridade de compra em lançamentos

    • Mais recursos no app do Afinador

    • Atendimento Prioritário

    • Descontos nos produtos Cifra Club

    • Ajude a produzir mais conteúdo

    00:00 / 00:00

    Cifra Club Pro

    Aproveite o Cifra Club com benefícios exclusivos e sem anúncios
    Cifra Club Pro
    Aproveite o Cifra Club com benefícios exclusivos e sem anúncios
    OK