Cifra Club

Indifference

Pearl Jam

Cifra: Versão 2 (violão e guitarra)
tom: G
Introdução
baixo
A|--0h7---7--7---7-7---|--0h5---5--5---5-5---|--0h7---7--7---7-7---|--0h5---7--7---7-7---|-

O baixo se resume à repetição dessa linha durante toda a música, com pequenas
variações no refrão. A guitarra 1 faz os acordes . A guitarra 2 entra só entre
os versos. Os acordes usados no refrão são os mesmos durante os solos da guitarra 2.


-verso-
Em                              D               Em
I will light the match this mornin', so I won't be alone
Watch as she lies silent, for soon night will be gone
Oh, I will stand arms outstretched, pretend I'm free to roam
Oh, I will make my way, through, one more day in Hell...

(final do primeiro verso...)
G2
E|--12------10------------------|---------------------------------|-  (2x)
B|------------------12------10--|----7h8---10---8-----------------|-
        
G               D               Em
How much difference does it make...
How much difference does it make, yeah...

(depois do refrão...)
G2
E|--12p10---15-----12p10-10----------|-12p10---15-----12p10-10----------|-
B|------12-----------------12-----12-|------12----------------12--------|-
G|-----------------------------------|----------------------------------|-
D|-----------------------------------|----------------------------------|-
A|-----------------------------------|----------------------------------|-
E|-----------------------------------|----------------------------------|-

-----10---12-----------------------|--12p10---15-----12p10-10----------|-
-12--------------------------------|-------12----------------12-----12-|-
-----------------------------------|-----------------------------------|-
-----------------------------------|-----------------------------------|-
-----------------------------------|-----------------------------------|-
-----------------------------------|-----------------------------------|-

-12p10---15-----12p10-10----------|-----10---12-----12>(14)--10-12-------|-
------12----------------12--------|-12-----------------------------------|-
----------------------------------|--------------------------------------|-
----------------------------------|--------------------------------------|-
----------------------------------|--------------------------------------|-
----------------------------------|--------------------------------------|-

-verso II-
Em                      D               Em
I will hold the candle till it burns up my arm
Oh, I'll keep takin' punches until their will grows tired
Oh, I will stare the sun down until my eyes go blind
Hey, I won't change direction, and I won't change my mind

(junto com o refrão...)
G2
E|--12------10------------------|---------------------------------|-- (2x)
B|------------------12------10--|----7h8---10---8-----------------|--
G               D               Em
How much difference does it make...
Mmm, how much difference does it make...
...how much difference...

(depois do refrão...)
G2
E|--12p10---15-----12p10-10----------|-12p10---15-----12p10-10----------|-
B|------12-----------------12-----12-|------12----------------12--------|-
G|-----------------------------------|----------------------------------|-
D|-----------------------------------|----------------------------------|-
A|-----------------------------------|----------------------------------|-
E|-----------------------------------|----------------------------------|-

-----10---12-----------------------|--12p10---15-----12p10-10----------|-
-12--------------------------------|-------12----------------12-----12-|-
-----------------------------------|-----------------------------------|-
-----------------------------------|-----------------------------------|-
-----------------------------------|-----------------------------------|-
-----------------------------------|-----------------------------------|-

-12p10---15-----12p10-10----------|-----10---12-----12>(14)--10-12-------|-
------12----------------12--------|-12-----------------------------------|-
----------------------------------|--------------------------------------|-
----------------------------------|--------------------------------------|-
----------------------------------|--------------------------------------|-
----------------------------------|--------------------------------------|-

-verso 3-
Em                      D               Em
I'll swallow poison, until I grow immune
I will scream my lungs out till it fills this room


(junto com o refrão...)
G2
E|--12------10------------------|---------------------------------|-- (2x)
B|------------------12------10--|----7h8---10---8-----------------|--
G           D      Em
How much difference... 
How much difference...
How much difference does it make...
How much difference does it make, yeah...



Obs: durante parte do ultimo refrão e no final da música a guitarra 2 repete
     o solo que acompanha os refrões com algumas variações. Use aleatoriamente
     as mesmas notas usadas pela guitarra 2 durante toda a música, para fazer
     esse solo.
00:00 / 00:00
Outros vídeos desta música
Repetir
Outros vídeos desta música
Composição de Dave Abbruzzese / Eddie Vedder / Jeff Ament / Mike McCready / Stone Gossard
6.157 exibições
    • ½ Tom
    • A
    • Bb
    • B
    • C
    • Db
    • D
    • Eb
    • E
    • F
    • F#
    • G
    • Ab
  • Adicionar à lista

    0 comentários

    Ver todos os comentários

    Conseguiu tocar?

    3 Tocaram 0 Ainda não

    Grave um vídeo tocando Indifference e nos envie!

    Entre para oCifra Club PRO

    Tenha acesso a benefícios exclusivos no App e no Site

    • Chega de anúncios

    • Prioridade de compra em lançamentos

    • Mais recursos no app do Afinador

    • Atendimento Prioritário

    • Descontos nos produtos Cifra Club

    • Ajude a produzir mais conteúdo

    00:00 / 00:00

    Cifra Club Pro

    Aproveite o Cifra Club com benefícios exclusivos e sem anúncios
    Cifra Club Pro
    Aproveite o Cifra Club com benefícios exclusivos e sem anúncios
    OK