Cifra Club

Let Me Sleep

Pearl Jam

Cifra: Principal (violão e guitarra)
tom: A
G1: DGDGBD (low to high)
G2: GGDGBD

-|--7--5h7p5-\-0--2b*--0-------7--5h7p5p0--2b-0------7--5h7p5p0--2b-0---------
-|----------------------------------------------------------------------------
-|----------------------------------------------0-------------------------0---
-|--------------------------------------------------------------------0h2-----
-|--0-------------0------0--0--0-----------0----0--0-0-----------0------------
-|----------------------------------------------------------------------------
  G1            1/4 step bend                                                 

-|----------------------------------------------------------------------------
-|----------------------------------------------------------------------------
-|---0------------7-7-7-7--0-0-0-----------7-7-7-7-7-0-0---------7-7-7-7-7-0--
-|---0------------7-7-7-7--0-0-0-----------7-7-7-7-7-0-0---------7-7-7-7-7-0--
-|---0------------7-7-7-7--0-0-0-----------7-7-7-7-7-0-0---------7-7-7-7-7-0--
-|---0------------7-7-7-7--0-0-0-----------7-7-7-7-7-0-0---------7-7-7-7-7-0--
   G2: Rhythm Figure 1 (RF 1)                            End Rhythm Figure 1  

-|--7--5h7p5p0--2b-0-----0----7--5h7p5p0--2b--0--------7--5h7p5p0-2b-0--------
-|----------------------------------------------------------------------------
-|-------------------2-0-------------------------2-0-------------------2-0----
-|----------------------------------------------------------------------------
-|--0-----------0----0--------0-----------0---0--0-0---0----------0--0-0-0----
-|----------------------------------------------------------------------------
 G1 (w/ RF 1)         "cold wind blows..    on the souls of my feet           

-|---7--5h7p5p0--2b-0----------7--5h7p5p0-2b-0-------7-5h7p5p0-2b-0-----------
-|----------------------------------------------------------------------3---3-
-|---------------------2--0--------------------2-0------------------2-0---0---
-|----------------------------------------------------------------------------
-|---0-----------0--0--0--0----0----------0--0-0-0---0---------0--0-0-0-------
-|----------------------------------------------------------------------------
   heaven knows     nothing of me                        when I'm lost..      

-|--7--5h7p5p0--2b-0-------------12-10h12p10\9---9---9-----9---9--------------
-|-------------------0---3---------------------0-------0----------------------
-|---------------------2---0-----------------------7-----7---0---7------------
-|----------------------------------------------------------------------------
-|--0-----------0--0---0---0-----0---------0-----0-------0-----0--------------
-|----------------------------------------------------------------------------
 G1      when I'm cold..                                                      

-|--------------------------------3--3-------3--3-----3--3----3--3----3--3----
-|--------------------------------3--3---x---3--3--x--3--3-x--3--3-x--3--3----
-|--------------------------------0--0---x---0--0--x--0--0-x--0--0-x--0--0----
-|--------------------------------0--0---x---0--0--x--0--0-x--0--0-x--0--0----
-|--------------------------------0--0-------0--0--x--0--0----0--0----0--0----
-|--------------------------------0--0-------0--0-----0--0----0--0----0--0----
   G2                             Rhythm Figure 2                             

-|---12-10h12p10\9---9---9-------9-----7--5h7p5--0--4---0--0---4--5-----------
-|-------------------------------------0----------------3--3---3----5---------
-|-----------------7---7---7-0-7---0----------------------------------5-------
-|----------------------------------------------------------------------------
-|---0--0--------0-0---0---0---0---0------------------------------------------
-|----------------------------------------------------------------------------
  G1                                                oh when I was a kid       

-|---3--3----3---3---3---3----3---3-------------------------------------------
-|---3--3-x--3---3-x-3---3--x-3---3-----------0--0------7-7----7---5--5--5----
-|---0--0-x--0---0-x-0---0--x-0---0-----------0--0------7-7----7---5--5--5----
-|---0--0-x--0---0-x-0---0--x-0---0-----------0--0------7-7----7---5--5--5----
-|---0--0-x--0---0---0---0----0---0-------------------------------------------
-|---0--0----0---0---0---0----0---0-------------------------------------------
  G2                  end Rhythm Figure 2     Rhythm Figure 3                 

-|--5-------4---4----5-----5------4---4----5------5--/-------------0----------
-|----5-------3---3----5-----5----3-3---3--5-5----5--/---------------0--------
-|------5----------------5-----5---------------5-----------------------0------
-|----------------------------------------------------------------------------
-|----------------------------------------------------------------------------
-|----------------------------------------------------------------------------
 G1 oh how magic it seemed.. oh please let me sleep it's xmas time..          

-|------------------------------------------------------------------3-3---3-3-
-|--5-5-5---7--7---7--5--5--5-5-5-7---7-7--5--5-5--5--5----0--------3-3---3-3-
-|--5-5-5---7--7---7--5--5--5-5-5-7---7-7--5--5-5--5--5--5-0----0---0-0-x-0-0-
-|--5-5-5---7--7---7--5--5--5-5-5-7---7-7--5--5-5--5--5--5-0----0---0-0-x-0-0-
-|-------------------------------------------------------5-0----0---0-0---0-0-
-|---------------------------------------------------------0--------0-0---0-0-
  G2                                                    end Rhythm Figure 3   

-|---7--5h7p5p0-2b-0---------0---7--5h7p5p0-2b-0------------------------------
-|-------------------------0--------------------------------------------------
-|--------------------2--0-----------------------2-0--------------------------
-|----------------------------------------------------------------------------
-|-------------------------------0----------0---0--0--------------------------
-|----------------------------------------------------------------------------
   G1 (w/ RF 1)                                  flowered hands was where I   

-|---7--5h7p5p0--2b-0--------7--5h7p5p0-2b-0-----------7-5h7p5p0-2b-0---------
-|-----------------------------------------------0----------------------------
-|--------------------2-0--------------------2-0-----------------------0------
-|----------------------------------------------------------------------------
-|---0-----------0--0-0-0----0----------0--0---0-------0---------0--0--0------
-|----------------------------------------------------------------------------
 G1                                        burned not froze for you sins      

-|--7--5h7p5p0--2b--0-------------7--5h7p5p0--2b--0-----0-----0---------------
-|----------------------------------------------------0-----0-----------------
-|--------------------0-----------------------------0-----0-------------------
-|----------------------------------------------------------------------------
-|--0--0--------0---0-0--0h2--0---0--0--------0---0-0-----0-------------------
-|----------------------------------------------------------------------------
 G1               I'm so tired..              and cold..                      

-|---12--10h12p10\9---9-----9-------9----9---9---9-----9----------------------
-|----------------------0-----0--------------------0--------------------------
-|------------------7-----7-----0-7----7---7---7-----7------------------------
-|----------------------------------------------------------------------------
-|---0---0--------0-0-----0-----0-0----0---0----------------------------------
-|----------------------------------------------------------------------------
  G1 (w/ RF 2)                                                                

-|--7--5h7p5p0--4---4----5---------5--4---4----5-----5------------------------
-|----------------3---3--5-5-----5----3-3---3--5-5-----5----------------------
-|---------------------------5---------------------5-----5--------------------
-|----------------------------------------------------------------------------
-|--0-------------------------------------------------------------------------
-|----------------------------------------------------------------------------
 G1 (w/ RF3) oh when I was a kid.. oh how magic it seemed..                   

-|---4----4-----5-----5-------------------0------0----------------------------
-|---3--3---3---5-5---5-5-----5-/-----0-----0------0--------------------------
-|------------------5-----5---5-/---0---------0-------------------------------
-|----------------------------------------------------------------------------
-|----------------------------------------------------------------------------
-|----------------------------------------------------------------------------
 G1 oh please let me sleep, it's xmas time..                                  

-|--3-2h3p2p0------0--0--0----0--3-2h3p2p0----0-----0--0-----0--3-2h3p2p0-----
-|------------3--3----2--0--0--------------3--3--2--0----0--------------------
-|------------3-------2--0-----------------3-----2--0------0------------------
-|----------------------------------------------------------------------------
-|--------------------------------------------------0-------------------------
-|----------------------------------------------------------------------------
 G1                                                                           

-|-----------------------------------------------------5-5-5----5--5-5--------
-|--x---x--x----x-----x--x-------0---3--3----0---3--3--3-3-3----3--3-3--------
-|--x---x--x----x-----x--x-------0---0--0----0---0--0--0-0-0----0--0-0--------
-|--x---x--x----x-----x--x-------0---0--0----0---0--0--0-0-0----0--0-0--------
-|--x---x--x----x-----x--x-------------------0--------------------------------
-|----------------------------------------------------------------------------
 G2                                                                           

-|------0------0-0-----0--3-2h3p2p0----0-----0--0-----------------------------
-|---3--3--2---0---0----------------3--3--2--0----0---------------------------
-|---3-----2---0-----0--------------3-----2--0------0-------------------------
-|----------------------------------------------------------------------------
-|----------------------------------------------------------------------------
-|----------------------------------------------------------------------------
 G1                                                ah..                       

-|---5---5--5---5--5-5----5---5--5----5----5--5--5--5--5----------------------
-|---3---3--3---3--3-3----3---3--3----3----3--3--3--3--3----------------------
-|---0---0--0---0--0-0----0---0--0----0----0--0--0--0--0----------------------
-|---0---0--0---0--0-0----0---0--0----0----0--0--0--0--0----------------------
-|----------------------------------------------------------------------------
-|----------------------------------------------------------------------------
 G2                                                                           

-|---4--4---4--5-----5---------4----4----5-----5------------------------------
-|---3--3---3--5-5-----5-----3-3--3---3--5-5----------------------------------
-|-----------------5-----5---0---------------5--------------------------------
-|----------------------------------------------------------------------------
-|----------------------------------------------------------------------------
-|----------------------------------------------------------------------------
 G1 (w/ RF3) oh when I was a kid.. oh how magic it seemed..                   

-|---4----4-----5------5------5-/----0---0-------0----------------------------
-|---3--3---3---5-5----5-5----5-/----------0-------0--------------------------
-|------------------5------5-------0---0-----0-0------------------------------
-|----------------------------------------------------------------------------
-|----------------------------------------------------------------------------
-|----------------------------------------------------------------------------
 G1  oh please let me sleep it's xmas time..       oh..                       

-|---4----4----5------5-0h5------4--5p4-2h4--5-----7-5--4--5p4---2------------
-|---3--3---3--5-5----------5----3-----------5-5--------3------3--------------
-|-----------------5----------5------------------5----------------------------
-|----------------------------------------------------------------------------
-|----------------------------------------------------------------------------
-|----------------------------------------------------------------------------
 G1 oh when I.. if I was a kid.. oh how magic it seemed.. oh please let me    

-|---5------5-----------0-----0------0---0----12-10h12p10\9---9---9------9----
-|---5-5----5-5-----5/----0-----0-----------------------------------0------0--
-|-------5------5-----------0-----0-------------------------7---7-----0--7----
-|----------------------------------------------------------------------------
-|--------------------------------------------0-------------0---0-------------
-|----------------------------------------------------------------------------
 G1 dream it's Christmas time..     time..    (w/ RF 2)                       

-|--12--10h12p10--9---9-----------9--12--10h12p10\9--9-----9--9------9----9---
-|-------------------------------------------------------0------0----0--------
-|----------------7-0---0--7--7-7----------------------7----------7--0--0-----
-|----------------------------------------------------------------------------
-|--0---0---------0------------------0----0-------0----0----------------------
-|----------------------------------------------------------------------------
 G1                                    repeat until end              
Composição de Eddie Vedder / Mike McCready
Colaboração e revisão:
  • Erik Conceiçao
4.323 exibições
    • ½ Tom
    • A
    • Bb
    • B
    • C
    • Db
    • D
    • Eb
    • E
    • F
    • F#
    • G
    • Ab
  • Adicionar à lista

    0 comentários

    Ver todos os comentários

    Conseguiu tocar?

    0 Tocaram 0 Ainda não

    Grave um vídeo tocando Let Me Sleep e nos envie!

    00:00 / 00:00
    Outros vídeos desta música
    Repetir Qualidade Automático
    Outros vídeos desta música
    00:00 / 00:00
    Automático

    Cifra Club Pro

    Aproveite o Cifra Club com benefícios exclusivos e sem anúncios
    Cifra Club Pro
    Aproveite o Cifra Club com benefícios exclusivos e sem anúncios
    OK