Cifra Club

Release / Master / Slave (Medley)

Pearl Jam

Cifra: Principal (violão e guitarra)
tom: G
 Introdução e durante a música
 
    -3-p-0-0-h-2-p-0--------0----------------------------
    ------------------3--------3-------------------------
    ---------------------2-------2-----------------------
    -------0--------------------------------------------
    -----------------------------------------------------
    -----------------------------------------------------
 
 Refrão
 
       D          Bm          C5    
  G|---7-----------4----------5-----------------------------------------
  D|---4-----------0----------2-----------------------------------------
  A|---5-----------2----------3-----------------------------------------
  E|-------------------------------------------------------------------
     


i see the world
feel the truth
which way to go
windowsill
i see the words  
on a rocking horse of time
i see the birds in the rain

oh dear diane
can you see me now
i am myself
like you somehow
i'll ride the wave
where it takes me
i'll hold the pain
release me

oh dear diane
can you see me now
i am myself
like you somehow
i'll wait up in the dark
for you to speak to me
i'll open up
release me
release me
release me
release me

                  

================================================================================
==                           Símbolos da tablatura                         ==
================================================================================

----------                            ----------
----5h8--- Hammeron                   ----(8)--- Ghost Note
----------                            ----------
----5p8--- Pulloff                    ----------

----------                            ----------
----5/8--- Slide Up                   -----x---- Dead Note
----------                            ----------
----58--- Slide Down                 ----------

----------                            ||------|| Repeat Start & End
----5~~~-- Vibrato                    ||*----*||
----------                            ||*----*||
----------                            ||------||
00:00 / 00:00
Outros vídeos desta música
Repetir
Outros vídeos desta música
Composição de Dave Krusen / Eddie Vedder / Jeff Ament / Mike McCready / Stone Gossard
12.047 exibições
    • ½ Tom
    • A
    • Bb
    • B
    • C
    • Db
    • D
    • Eb
    • E
    • F
    • F#
    • G
    • Ab
  • Adicionar à lista

    0 comentários

    Ver todos os comentários

    Conseguiu tocar?

    0 Tocaram 0 Ainda não

    Grave um vídeo tocando Release / Master / Slave (Medley) e nos envie!

    Entre para oCifra Club PRO

    Tenha acesso a benefícios exclusivos no App e no Site

    • Chega de anúncios

    • Prioridade de compra em lançamentos

    • Mais recursos no app do Afinador

    • Atendimento Prioritário

    • Descontos nos produtos Cifra Club

    • Ajude a produzir mais conteúdo

    00:00 / 00:00

    Cifra Club Pro

    Aproveite o Cifra Club com benefícios exclusivos e sem anúncios
    Cifra Club Pro
    Aproveite o Cifra Club com benefícios exclusivos e sem anúncios
    OK