Cifra Club

Aprenda

Severed Hand

Pearl Jam

Cifra: Principal (violão e guitarra)
Tom: C
G1: Stone Gossard
G2: Mike McCready

INTRO:

G1:
 (                                             2X                                                  )
e|-14-14-14-14-14-14-14-14--15-15-15-15-15-15-15-15--15-15-15-15-15-15-15-15--15-15-15-15-15-15-15-|
B|-15-15-15-15-15-15-15-15--15-15-15-15-15-15-15-15--15-15-15-15-15-15-15-15--15-15-15-15-15-15-15-|
G|-14-14-14-14-14-14-14-14-------------------------------------------------------------------------|
D|----------------------------------------------------------------------------14-14-14-14-14-14-14-|
A|--------------------------14-14-14-14-14-14-14-14--13-13-13-13-13-13-13-13--15-15-15-15-15-15-15-|
E|--------------------------15-15-15-15-15-15-15-15------------------------------------------------|

G1:
  D                 G                Gm/A#             Cadd9
e|-2-2-2-2-2-2-2-2--3-3-3-3-3-3-3-3--3-3-3-3-3-3-3-3--3-3-3-3-3-3-3-3-|
B|-3-3-3-3-3-3-3-3--3-3-3-3-3-3-3-3--3-3-3-3-3-3-3-3--3-3-3-3-3-3-3-3-|
G|-2-2-2-2-2-2-2-2----------------------------------------------------|
D|----------------------------------------------------2-2-2-2-2-2-2-2-|
A|------------------2-2-2-2-2-2-2-2--1-1-1-1-1-1-1-1--3-3-3-3-3-3-3-3-|
E|------------------3-3-3-3-3-3-3-3-----------------------------------|

G2:
e|--------------------------------------------------------------------|
B|--------------------------------------------------------------------|
G|-----------------------------------7-7-7-7-7-7-7-7--5-5-5-5-5-5-5-5-|
D|-7-7-7-7-7-7-7-7--5-5-5-5-5-5-5-5-------------------7-7-7-7-7-7-7-7-|
A|--------------------------------------------------------------------|
E|--------------------------------------------------------------------|


G1:
  D                 G                Gm/A#             Cadd9
e|-2-2-2-2-2-2-2-2--3-3-3-3-3-3-3-3--3-3-3-3-3-3-3-3--3-3-3-3-3-3-3-3-|
B|-3-3-3-3-3-3-3-3--3-3-3-3-3-3-3-3--3-3-3-3-3-3-3-3--3-3-3-3-3-3-3-3-|
G|-2-2-2-2-2-2-2-2----------------------------------------------------|
D|----------------------------------------------------2-2-2-2-2-2-2-2-|
A|------------------2-2-2-2-2-2-2-2--1-1-1-1-1-1-1-1--3-3-3-3-3-3-3-3-|
E|------------------3-3-3-3-3-3-3-3-----------------------------------|

G2:
e|--------------------------------------------------------------------|
B|--------------------------------------------------------------------|
G|-----------------------------------7-7-7-7-7-7-7-7--9-9-9-9-9-9-9-9-|
D|-7-7-7-7-7-7-7-7--5-5-5-5-5-5-5-5-----------------------------------|
A|--------------------------------------------------------------------|
E|--------------------------------------------------------------------|


G1:
  D                 G                Gm/A#             Cadd9
e|-2-2-2-2-2-2-2-2--3-3-3-3-3-3-3-3--3-3-3-3-3-3-3-3--3-3-3-3-3-3-3-3-3-3-3-3-3-3-3-3-|
B|-3-3-3-3-3-3-3-3--3-3-3-3-3-3-3-3--3-3-3-3-3-3-3-3--3-3-3-3-3-3-3-3-3-3-3-3-3-3-3-3-|
G|-2-2-2-2-2-2-2-2--------------------------------------------------------------------|
D|----------------------------------------------------2-2-2-2-2-2-2-2-2-2-2-2-2-2-2-2-|
A|------------------2-2-2-2-2-2-2-2--1-1-1-1-1-1-1-1--3-3-3-3-3-3-3-3-3-3-3-3-3-3-3-3-|
E|------------------3-3-3-3-3-3-3-3---------------------------------------------------|

G2:
e|------------------------------------------------------------------------------------|
B|------------------------------------------------------------------------------------|
G|------------------------------------------------------------------------------------|
D|-7-7-7-7-7-7-7-7--5-5-5-5-5-5-5-5--7-7-7-7-7-7-7-7--9-9-9-9-9-9-9-9-9-9-9-9-9-9-9-9-|
A|------------------------------------------------------------------------------------|
E|------------------------------------------------------------------------------------|

G1 & G2:
 (                                  2X                                    ) 
  G   A                        C   G        A                       C   G
e|------------------------------------------------------------------------|
B|------------------------------------------------------------------------|
G|-----------------------------5------------------------------------5-----|
D|-5-/-7--7--7--7--X--X--X--X--5---5----5-/-7--7--7--7--X--X--X--X--5---5-|
A|-5-/-7--7--7--7--X--X--X--X--3---5----5-/-7--7--7--7--X--X--X--X--3---5-|
E|-3-/-5--5--5--5--X--X--X--X------3----3-/-5--5--5--5--X--X--X--X------3-|

PARTE 1:

G1 & G2:
 (                                  4X                                    ) 
  G   A                        C   G        A                       C   G
e|------------------------------------------------------------------------|
B|------------------------------------------------------------------------|
G|-----------------------------5------------------------------------5-----|
D|-5-/-7--7--7--7--X--X--X--X--5---5----5-/-7--7--7--7--X--X--X--X--5---5-|
A|-5-/-7--7--7--7--X--X--X--X--3---5----5-/-7--7--7--7--X--X--X--X--3---5-|
E|-3-/-5--5--5--5--X--X--X--X------3----3-/-5--5--5--5--X--X--X--X------3-|

PRÉ-REFRÃO:

G1:
   D                        F
e|-------------------------------------------------|
B|-7--7--7--7--7--7--7--7--------------------------|
G|-7--7--7--7--7--7--7--7--------------------------|
D|-5--5--5--5--5--5--5--5---3--3--3--3--3--3--3--3-|
A|-5--5--5--5--5--5--5--5---3--3--3--3--3--3--3--3-|
E|--------------------------1--1--1--1--1--1--1--1-|

G1:
  G   A                        C   G        A                       C   G
e|------------------------------------------------------------------------|
B|------------------------------------------------------------------------|
G|-----------------------------5------------------------------------5-----|
D|-5-/-7--7--7--7--X--X--X--X--5---5----5-/-7--7--7--7--X--X--X--X--5---5-|
A|-5-/-7--7--7--7--X--X--X--X--3---5----5-/-7--7--7--7--X--X--X--X--3---5-|
E|-3-/-5--5--5--5--X--X--X--X------3----3-/-5--5--5--5--X--X--X--X------3-|

G2:
   A                           A   G        A                       A   G   
e|-5---------------------------5---3--------5-----------------------5---3-|
B|-5---------------------------5---3--------5-----------------------5---3-|
G|-6---------------------------6---4--------6-----------------------6---4-|
D|-7---------------------------7---5--------7-----------------------7---5-|
A|-7---------------------------7---5--------7-----------------------7---5-|
E|-5---------------------------5---3--------5-----------------------5---3-|


G1:
   D                        F
e|-------------------------------------------------|
B|-7--7--7--7--7--7--7--7--------------------------|
G|-7--7--7--7--7--7--7--7--------------------------|
D|-5--5--5--5--5--5--5--5---3--3--3--3--3--3--3--3-|
A|-5--5--5--5--5--5--5--5---3--3--3--3--3--3--3--3-|
E|--------------------------1--1--1--1--1--1--1--1-|

G2:
   D                        F     
e|-14----------------------------------------------|
B|-15-----------------------13---------------------|
G|-14-----------------------14---------------------|
D|--------------------------15---------------------|
A|-------------------------------------------------|
E|-------------------------------------------------|


G1:
  G   A                        C   G        A                       C   G
e|------------------------------------------------------------------------|
B|------------------------------------------------------------------------|
G|-----------------------------5------------------------------------5-----|
D|-5-/-7--7--7--7--X--X--X--X--5---5----5-/-7--7--7--7--X--X--X--X--5---5-|
A|-5-/-7--7--7--7--X--X--X--X--3---5----5-/-7--7--7--7--X--X--X--X--3---5-|
E|-3-/-5--5--5--5--X--X--X--X------3----3-/-5--5--5--5--X--X--X--X------3-|

G2:
   A                           A   G        A                       A   G   
e|------------------------------------------------------------------------|
B|-14--------------------------14---15------14----------------------------|
G|-14--------------------------14---12------14----------------------------|
D|-14--------------------------14---12------14----------------------------|
A|------------------------------------------------------------------------|
E|------------------------------------------------------------------------|

REFRÃO:

G1:
       D      D/C#        C       G         D      D/C#          C       C/B 
e|----------------------------------------------------------------------------|
B|----------------------------------------------------------------------------|
G|----------------------------------------------------------------------------|
D|-----7-------7----------5-----------------7-------7------------5-------5----|
A|-----5-------4----------3-------5---------5-------4------------3-------2----|
E|--------------------------------3-------------------------------------------|

G2:
e|----------------------------------------------------------------------------|
B|---10----10--10------------8-------8------10--10--10-----------8-------8----|
G|---11-11------x------------9-------0------11-------x-----------9-------0----|
D|---12--------11-----------10-------9------12------11----------10-------9----|
A|----0---------0-----------10------10-------0-------0----------10------10----|
E|----------------------------------------------------------------------------|


G1:
                D      D/C#         C        G      F
e|----------------------------------------------------------------------------|
B|----------------------------------------------------------------------------|
G|----------------------------------------------------------------------------|
D|--------------7-------7-----------5--------5--------------------------------|
A|--------------5-------4-----------3--------5------3-3-3-3--3-3-3-3--3-3-3-3-|
E|-------------------------------------------3------1-1-1-1--1-1-1-1--1-1-1-1-|

G2:
e|----------------------------------------------------------------------------|
B|-------------10-10---10-----------8--------8--------------------------------|
G|-------------11-------X-----------9--------0--------------------------------|
D|-------------12------11----------10--------9--------------------------------|
A|--------------0-------0----------10-------10------3-3-3-3--3-3-3-3--3-3-3-3-|
E|--------------------------------------------------1-1-1-1--1-1-1-1--1-1-1-1-|

PARTE 2:

G1:
  G   A                        C   G        A                       C   G
e|------------------------------------------------------------------------|
B|------------------------------------------------------------------------|
G|-----------------------------5------------------------------------5-----|
D|-5-/-7--7--7--7--X--X--X--X--5---5----5-/-7--7--7--7--X--X--X--X--5---5-|
A|-5-/-7--7--7--7--X--X--X--X--3---5----5-/-7--7--7--7--X--X--X--X--3---5-|
E|-3-/-5--5--5--5--X--X--X--X------3----3-/-5--5--5--5--X--X--X--X------3-|

G2:(com harmônico)
e|------------------------------------------------------------------------|
B|------------------------------------------------------------------------|
G|-----5-5-5-5-5-5-5-5-5-5-5-5-5---------5-----------5--------------------|
D|-------------------------------7-7-7-7---7-7-7-7-7---7-7-7-7-7-7-7-7*\--|
A|------------------------------------------------------------------------|
E|------------------------------------------------------------------------|

G1:
 (                                  3X                                    )   
  G   A                        C   G        A                       C   G
e|------------------------------------------------------------------------|
B|------------------------------------------------------------------------|
G|-----------------------------5------------------------------------5-----|
D|-5-/-7--7--7--7--X--X--X--X--5---5----5-/-7--7--7--7--X--X--X--X--5---5-|
A|-5-/-7--7--7--7--X--X--X--X--3---5----5-/-7--7--7--7--X--X--X--X--3---5-|
E|-3-/-5--5--5--5--X--X--X--X------3----3-/-5--5--5--5--X--X--X--X------3-|

G1:  
  G   A                        C   G        A                       C   G
e|------------------------------------------------------------------------|
B|------------------------------------------------------------------------|
G|-----------------------------5------------------------------------5-----|
D|-5-/-7--7--7--7--X--X--X--X--5---5----5-/-7--7--7--7--X--X--X--X--5---5-|
A|-5-/-7--7--7--7--X--X--X--X--3---5----5-/-7--7--7--7--X--X--X--X--3---5-|
E|-3-/-5--5--5--5--X--X--X--X------3----3-/-5--5--5--5--X--X--X--X------3-|

G2:
e|------------------------------------------------------------------------|
B|------------------------------------------------------------------------|
G|---5-5-5-5-5-5-5-5-5-5-5-5-5---------5------------5---------------------|
D|-----------------------------7-7-7-7---7-7-7--7-7---7--7-7-7-7-7-7-7-5*-|
A|------------------------------------------------------------------------|
E|------------------------------------------------------------------------|

PRÉ-REFRÃO

REFRÃO + Em

PARTE 3:

G1:
      Am      Dadd9/F#       G          E         Am      Dadd9/F#      F          Em
e|----0----------------------3----------0----|----0-------------------------------------|
B|----1----------3-----------3----------0----|----1----------3--------------------------|
G|----2----------2-----------0----------1----|----2----------2---------------------0----|
D|----2----------0-----------0----------2----|----2----------0----------3----------2----|
A|----0----------x-----------2----------2----|----0----------X----------3----------2----|
E|---------------2-----------3----------0----|---------------2----------1----------0----|

e|-------------------------------------------|------------------------------------------|
B|-------------------------------------------|------------------------------------------|
G|---------------------------------------7p5-|7p5-7p5-7p5-7p5-7p5-9p7-9p7-9p7-10p7-10p7-|
D|--------------------------------------------------------------------------------------|
A|--------------------------------------------------------------------------------------|
E|--------------------------------------------------------------------------------------|

G1:
      Am      Dadd9/F#       G          E         F          E          F          E
e|----0----------------------3----------0----|----1-------------------------------------|
B|----1----------3-----------3----------0----|----1----------0--------------------------|
G|----2----------2-----------0----------1----|----2----------1---------------------0----|
D|----2----------0-----------0----------2----|----3----------2----------3----------2----|
A|----0----------x-----------2----------2----|----3----------2----------3----------2----|
E|---------------2-----------3----------0----|----1----------0----------1----------0----|

G2:
e|-------------------------------------------|------------------------------------------|
B|-------------------------------------------|------------------------------------------|
G|--12p10-12p10-12/14-------/9---------/4----|-4--4/5-------/4---------/5---------/4----|
D|-------------------------------------------|------------------------------------------|
A|-------------------------------------------|------------------------------------------|
E|-------------------------------------------|------------------------------------------|

SOLO:

G1:
 (                                  12X                                   )   
  G   A                        C   G        A                       C   G
e|------------------------------------------------------------------------|
B|------------------------------------------------------------------------|
G|-----------------------------5------------------------------------5-----|
D|-5-/-7--7--7--7--X--X--X--X--5---5----5-/-7--7--7--7--X--X--X--X--5---5-|
A|-5-/-7--7--7--7--X--X--X--X--3---5----5-/-7--7--7--7--X--X--X--X--3---5-|
E|-3-/-5--5--5--5--X--X--X--X------3----3-/-5--5--5--5--X--X--X--X------3-|

G2:
e|---------------------------------------------------5-----------5------------|
B|-------------------------------------------------5---5-8-8b10----8-5---5----|
G|---7b9r7p5----5h7~---7p5-7p5-----7b9r7p5---5-7b9---------------------7------|
D|-----------p7----------------7~----------7----------------------------------|
A|----------------------------------------------------------------------------|
E|----------------------------------------------------------------------------|

e|------------------10b12--b12-8~---------------------------------------------|
B|---------------------------------8-5----------------------------------------|
G|-7b9r7-5-7~---/----------------------7-5-7p5-\--5-4-5-4---------4-5~----7/--|
D|--------------------------------------------------------5~--4-5------7~-----|
A|----------------------------------------------------------------------------|
E|----------------------------------------------------------------------------|

e|--8-8-8--8-8-8/7---8-8-8--8-8-8/7------------8-8-8--8-8-8/7---8-8-8--8-8----|
B|--X-X-X--X-X-X-X---X-X-X--X-X-X-X------------X-X-X--X-X-X-X---X-X-X--X-X----|
G|--5-5-5--5-5-5/4---5-5-5--5-5-5/4------------5-5-5--5-5-5/4---5-5-5--5-5----|
D|-----------------------------------5--5-4h5---------------------------------|
A|----------------------------------------------------------------------------|
E|----------------------------------------------------------------------------|

e|--8/7-8-------19b20--19b20~-------------------------------------------------|
B|--X-X-X-----------------------X/--------------------------------------------|
G|--5/4-5---X/------------------X/---7b9r7p5----5-7-5---------5--7h9p7p5h7~---|
D|----------X/-------------------------------h7-------7~--5-7-----------------|
A|----------------------------------------------------------------------------|
E|----------------------------------------------------------------------------|

e|-----5--8--7h8p7---5--/12---------------------------------------------17-17-|
B|-5h8-------------8--------15~---16r15-16r15-13~-13~--13b15r13-10------17-17-|
G|-----------------------------------------------------------------12/--14-14-|
D|----------------------------------------------------------------------------|
A|----------------------------------------------------------------------------|
E|----------------------------------------------------------------------------|

e|-17-17-17-17-17--17---------------------------------------------------------|
B|-17-17-17-17-17--20b22~-----X-/---------------------------------------------|
G|-14-14-14-14-14-------------X-/--------------5----------------5-------------|
D|----------------------------------5/7-7-7-7--X--5--5/7--7-7-7---5-----------|
A|----------------------------------X-X-X-X-X--3--X--X-X--X-X-X---------------|
E|----------------------------------3/5-5-5-5-----3--3/5--5-5-5---------------|

e|----------------------------------------------------------------------------|
B|----------------------------------------------------------------5-----------|
G|-------------------------------------------------------------/7---7-5-------|
D|--/7~--5---------------------------5h7-5------------------------------7-5---|
A|----------7-6-5-3--5b6r5-3-5~------------7-6-5-3-5b6r5-3-5~-----------------|
E|----------------------------------------------------------------------------|


G1:
    F                 B      E       F                 B     E  F   
e|----------------------------------------------------------------------------|
B|----------------------------------------------------------------------------|
G|---------------------4-4-4--------------------------4-4-4-------------------|
D|-3-3-3-3--3-3-3-3----4-4-4--2---3-3-3-3--3-3-3-3----4-4-4-2---3-3-3-3--3-3--|
A|-3-3-3-3--3-3-3-3----2-2-2--2---3-3-3-3--3-3-3-3----2-2-2-2---3-3-3-3--3-3--|
E|-1-1-1-1--1-1-1-1-----------0---1-1-1-1--1-1-1-1----------0---1-1-1-1--1-1--|

G2:
e|----------------------------------------------------------------------------|
B|-10b12r10-8---10~-----------------0-----------------------------------------|
G|----------------------------------------------------------------------------|
D|----------------------------------------------------------------------------|
A|----------------------------------------------------------------------------|
E|----------------------------------------------------------------------------|

G1:
    F       B     E                                E
e|----------------------------------------------------------------------------|
B|----------------------------------------------------------------------------|
G|----------4-4-4-------------------------------------------------------------|
D|---3-3----4-4-4-2--------------------------------2-/------------------------|
A|---3-3----2-2-2-2--------------------------------2-/------------------------|
E|---1-1----------0--------------------------------0--------------------------|
Composição de Eddie Vedder
Colaboração e revisão:
  • João Vidal
2.567 exibições
    • ½ Tom
    • A
    • Bb
    • B
    • C
    • Db
    • D
    • Eb
    • E
    • F
    • F#
    • G
    • Ab
  • Adicionar à lista

    0 comentários

    Mostrar mais comentários

    Conseguiu tocar?

    0 Tocaram 0 Ainda não

    Grave um vídeo tocando Severed Hand e mande pra gente!

    00:00 / 00:00
    outros vídeos desta música
    repetir qualidade Automático
    Outros vídeos desta música
    00:00 / 00:00
    Automático
    OK