Cifra Club

Aprenda

Sirens

Pearl Jam

Cifra: Principal (violão e guitarra)
Tom: Eb (forma dos acordes no tom de C) Capotraste na 3ª casa
[Intro] C  C9  C  C9  
        Am  A4  Am  A4

E|----------------------------------------------------|
B|--------------------5-------------------------------|
G|----------5-------2----------5----------------------|
D|-5~-----2----------------------5--------------------|
A|----------------------------------------------------|
E|----------------------------------------------------|

E|----------------------------------------------------|
B|----------------------------------------------------|
G|-----------5------5-2-------------------------------|
D|-5~------2------------------------------------------|
A|----------------------------------------------------|
E|----------------------------------------------------|

C     C9    C    C9
  Hear the sirens
Am    A4    Am   A4
  Hear the sirens

[Primeira Parte]

C           C9    
  Hear the sirens
C          C9         Am    A4  Am  A4
 Hear the circus so profound
C           C9    
I hear the sirens
C          C9           Am   A4  Am  A4
 More and more in this here town

[Pré-Refrão]

        G         A4(7)     G/B        G5/D    C9       Em
Let me catch my breath to breathe and reach across the bed
G          A4(7)     G/B   G5/D  C9           Am
 Just to know we're safe I am a     grateful man
      G        A4(7)  G/B      G5/D  C9       Em
The slightest bit of light and I    can see clear

[Refrão]

 Am                          C          G
Have to take your hand, and feel your breath
               Dm
For feel this someday will be over
Am             C                G
  I pull you close, so much to lose
                 Dm           Em   F
Knowing that nothing lasts forever
          C                    G
I didn't care before you were here
                      Dm             Em  F
I danced in laughter with the everafter
                 C                 G
But all things change. Let this remain

( C  C9  C  C9 )
( Am  A4  Am  A4 )

C           C9   
  Hear the sirens
C          C9              Am   A4  Am  A4
 Covering distance in the night
     C              C9   
The sound echoing closer
C           C9          Am       A4  Am  A4
 Will they come for me next time?

[Pré-Refrão]

    G       A4(7)     G/B       G5/D       C9      Em
For every choice, mistake I've made, it's not my plan
G     A4(7)        G/B  G5/D    C9       Am
  To send you in the    arms of another man
    G        A4(7)     G/B       G5/D  C9          Em
And if you choose to stay, I'll wait,  I'll understand

[Refrão]

Am                            C       G
  It's a fragile thing, this life we lead
                Dm
If I think too much, I cant get over
Am                 C                G
  Whelmed by the grace by which we live
                Dm                  Em  F
Our lives with death over our shoulder

              C                 G
Want you to know that should I go
                     Dm                  Em  F
I always loved you, held you high above too
              C                    Em
I study your face, the fear goes away

[Solo] Em  C  Am
       Em  C  D

(Sem Capo)

E|----------------------------------------------------|
B|----------------------------------------------------|
G|-10b12---b12----------------------------------------|
D|-------------10b12r10-8-10-8--10h12r10-8--8--8------|
A|----------------------------------------------------|
E|----------------------------------------------------|

E|------------------13b15---b15-b15r13-10-------------|
B|----------------------------------------13b15-13-11-|
G|----------------------------------------------------|
D|-12-12-12-12-12-------------------------------------|
A|----------------------------------------------------|
E|----------------------------------------------------|

E|--------------------18-20-22/-----------------------|
B|-13-13-13/-------20---------------18-15-------------|
G|----------------------------------------17-15-------|
D|----------------------------------------------------|
A|----------------------------------------------------|
E|----------------------------------------------------|

E|----------------------------------------------------|
B|----------------------------------------------------|
G|-15-15p14-15p14-12---------12-12-12-------15p14...--|
D|----------------------------------------------------|
A|----------------------------------------------------|
E|----------------------------------------------------|

( C  C9  C  C9 )
( Am  A4  Am  A4 )
( C  C9 )

[Refrão]

Am                            C       G
  It's a fragile thing, this life we lead
                Dm
If I think too much, I cant get over
Am                 C                G
  Whelmed by the grace by which we live
                Dm                  Em  F
Our lives with death over our shoulder

              C                 G
Want you to know that should I go
                     Dm                  Em  F
I always loved you, held you high above too
              C                    G
I study your face, the fear goes away
                Dm
The fear goes away
              Em  F
The fear goes a--way
C                G
 The fear goes away

[Final] Dm  Em  F
        C  G  Dm  Em  F
Composição de Eddie Vedder / Mike McCready
168.895 exibições
    • ½ Tom
    • A
    • Bb
    • B
    • C
    • Db
    • D
    • Eb
    • E
    • F
    • F#
    • G
    • Ab
  • Adicionar à lista

    0 comentários

    Mostrar mais comentários

    Conseguiu tocar?

    39 Tocaram 4 Ainda não

    Grave um vídeo tocando Sirens e mande pra gente!

    00:00 / 00:00
    outros vídeos desta música
    repetir qualidade Automático
    Outros vídeos desta música
    00:00 / 00:00
    Automático

    Cifra Club Pro

    Aproveite o Cifra Club com benefícios exclusivos e sem anúncios
    7 dias grátis
    Cifra Club Pro
    Aproveite o Cifra Club com benefícios exclusivos e sem anúncios
    7 dias grátis
    OK