Cifra Club

Aprenda

Wishlist

Pearl Jam

Tab de baixo: Principal
wishlist


-|----------------------------------------------|----------------------------- 
-|----------------------------------------------|----------------------------- 
-|----------------------------------------------|----------------------------- 
-|---8-----8-----8-----8-----8-----8------8-----|----------------------------- 
  Verse - hold these notes... continue untill pre-Chorus.                      
 
-|-----------------------------------------------------------|---------------- 
-|-----------------------------------------------------------|---------------- 
-|---8-----10---8--------------------8---10---/---12---10----|---------------- 
-|------------------10---8---8---/---------------------------|---------------- 
  Pre-Chorus                                                                   
 
-|-----------------------------------------------------------------|---------- 
-|-----------------------------------------------------------------|---------- 
-|---10---\---8---10---8-------------------------------------------|---------- 
-|-------------------------10---8---8-\-7-\-5---3---0h1--0h1--0h1--|-1-1-1-1-- 
                                                                    Build-up   
 
-|------------------------------------------------|--------------------------- 
-|------------------------------------------------|--------------------------- 
-|------------------------------------------------|--------------------------- 
-|--3--3--3--3---1--1--1--1--/--8--8--0h8--10--8--|--8--7--5--3---0h1--0h1---- 
   Chorus
Composição de Eddie Vedder
Colaboração e revisão:
  • deivison
1.050 exibições

0 comentários

Ver todos os comentários

Conseguiu tocar?

0 Tocaram 0 Ainda não

Grave um vídeo tocando Wishlist e nos envie!

00:00 / 00:00
Outros vídeos desta música
Repetir Qualidade Automático
Outros vídeos desta música
00:00 / 00:00
Automático

Cifra Club Pro

Aproveite o Cifra Club com benefícios exclusivos e sem anúncios
Cifra Club Pro
Aproveite o Cifra Club com benefícios exclusivos e sem anúncios
OK