Cifra Club

Aprenda

Vem Cá

Pelé MilFlows

Cifra: Principal (violão e guitarra)
tom: B
[Intro] B  D#7  E  Em
        B  D#7  E  Em

                   
E|-----7--------------------|
B|-----7----7-7--7h9p7------|
G|---8----8-------------8---|
D|-9------------------------|
A|--------------------------|
E|--------------------------|
                     
E|-----6--9p6---------------|
B|-----8-------8p6----------|
G|-----6------------8-------|
D|---8----------------------|
A|-6------------------------|
E|--------------------------|

                                     
E|-7--7--x--7----------------------|
B|-9--9--x--9----------------------|
G|-9--9--x--9------------8h9p8-----|
D|-------x----------9h11-------11--|
A|-7--7--x--7--9h11----------------|
E|-------x-------------------------|

                     
E|-7--7--x--7----------------------|
B|-8--8--x--8----------------------|
G|-7--7--x--7--11/12--11--9--8-----|
D|-------x-------------------------|
A|-7--7--x--7----------------------|
E|-------x-------------------------|

[Primeira Parte]

        B
Eu não posso esperar

Linda preciso te ver
     D#7
Te amar, te sentir

Branca eu amo você
     E
Não há, não há, não há
              Em
Como ela não há

Não há, não há

       B
Eu prometo lhe dar

O que você quiser
       D#7
Faz assim sou teu homem

E tu é minha mulher
     E
Vem cá, vem cá, vem cá
                  Em
Minha branca não vá

Não vá, não vá

[Segunda Parte]

B
  Deixa eu te fazer sorrir
D#7
   Tá esperando o que pra vir
E
  Se joga no ato do amar
Em
  Igual a você não há

B
  Deixa eu te fazer sorrir
D#7
   Tá esperando o que pra vir
E
  Se joga no ato do amar
Em
  Igual a você não há

[Refrão]

     B
Demorei pra encontrar

Alguém como você
        D#7
Que soube conversar

Que soube me entender
         E
Então fica perto de mim
           Em
Esse amor nunca vai ter fim

     B
Demorei pra encontrar

Alguém como você
        D#7
Que soube conversar

Que soube me entender
         E
Então fica perto de mim
           Em
Esse amor nunca vai ter fim

[Ponte]

 B
Vem agora, baby me namora
 D#7
Bora, bora, esquece o mundo lá fora
          E
E fica aqui perto de mim
           Em
Esse amor nunca vai ter fim

 B
Vem agora, baby me namora
 D#7
Bora, bora, esquece o mundo lá fora
          E
E fica aqui perto de mim
           Em
Esse amor nunca vai ter fim

[Refrão]

     B
Demorei pra encontrar

Alguém como você
        D#7
Que soube conversar

Que soube me entender
         E
Então fica perto de mim
           Em
Esse amor nunca vai ter fim

     B
Demorei pra encontrar

Alguém como você
        D#7
Que soube conversar

Que soube me entender
         E
Então fica perto de mim
           Em
Esse amor nunca vai ter fim

[Final] B  D#7  E  Em 
        B  D#7  E  Em
Composição de Pelé MilFlows
351.554 exibições
    • ½ Tom
    • A
    • Bb
    • B
    • C
    • Db
    • D
    • Eb
    • E
    • F
    • F#
    • G
    • Ab
  • Adicionar à lista

    0 comentários

    Ver todos os comentários

    Conseguiu tocar?

    169 Tocaram 77 Ainda não

    Grave um vídeo tocando Vem Cá e nos envie!

    00:00 / 00:00
    Outros vídeos desta música
    Repetir Qualidade Automático
    Outros vídeos desta música
    00:00 / 00:00
    Automático

    Cifra Club Pro

    Aproveite o Cifra Club com benefícios exclusivos e sem anúncios
    Cifra Club Pro
    Aproveite o Cifra Club com benefícios exclusivos e sem anúncios
    OK