Cifra Club

Forever My Queen

Pentagram (USA)

Cifra: Principal (violão e guitarra)
Selo Cifra Club: esta cifra foi revisada para atender aos critérios oficiais da nossa Equipe de Qualidade.
tom: Gm
E|------------------|
B|------------------|
G|-9--9--9-9-7-/10--|
D|-9--9--9-9-7-/10--|
A|-7--7--7-7-5-/8---|
E|-0--0--0-0-5-/8---| Rpt 3 X

E|------------------|
B|------------------|
G|-9--9--9-9-7-/10--|
D|-9--9--9-9-7------|
A|-7--7--7-7-5-/8---|
E|-0--0--0-0--------|

 Verse

E|------------------|
B|------------------|
G|-9--9--9-9-7-/10--|
D|-9--9--9-9-7-/10--|
A|-7--7--7-7-5-/8---|
E|-0--0--0-0--------| Rpt 7 X

E|------------------|
B|------------------|
G|-9--9--9-9-7------|
D|-9--9--9-9-7-/10\-|
A|-7--7--7-7-5-/8-\-|
E|-0--0--0-0--------|

 Chorus

      ~~~~    ~~~         h   h   h   h
E|--------------------------------------------|
B|--------------------------------------------|
G|--------------------------------------------|
D|-----5-----------4-5-4----------------------|
A|-7-7-----7-7-6---------5-7p5-7p5-7p5-7p5-x\-|
E|-----------------------------------------x\-| Rpt

 Rpt Chorus for backing of solo

 Guitar solo
        h           h           h           h      ~~~~~
E|-------------------------------------------------------12--------|
B|----12-15p12----12-15p12----12-15p12----12-15p12-15fb-----15-12--|
G|-14b---------14b---------14b---------14b-------------------------|
D|-----------------------------------------------------------------|
A|-----------------------------------------------------------------|
E|-----------------------------------------------------------------|

   ~~~~~          ~~~~~~          h        h        h        h
E|-15fb--15-12-----------------12-15p12-12-15p12-12-15p12-12-15p12--|
B|-------------15-15fb----15-15b--------15b------15b------15b-------|
G|------------------------------------------------------------------|
D|------------------------------------------------------------------|
A|------------------------------------------------------------------|
E|------------------------------------------------------------------|

      h    h                   ~~~~~~~~~~~~
E|-12-15p12-15p12-----15-17-17--fb-----------|
B|----------------/17------------------------|
G|-------------------------------------------|
D|-------------------------------------------|
A|-------------------------------------------|
E|-------------------------------------------|

 Rpt Main Riff and Verse

 Chorus
                            dip with trem
      ~~~~    ~~~         h   h   h   h
E|--------------------------------------------|
B|--------------------------------------------|
G|--------------------------------------------|
D|-----5-----------4-5-4----------------------|
A|-7-7-----7-7-6---------5-7p5-7p5-7p5-7p5-x\-|
E|-----------------------------------------x\-| Rpt


 Guitar 1
         ~~~~~      ~~~~~~~~~~~       ~~~~~~~~
[----------------------------------------------------|
[----------------------------------------------------|
[-------------------------------------2---b----------|
[----------------------------------------------------|
[-------5-(5)-------3----(3)-----\-------------------|
[-0-(0)-------0-(0)--------------\-------------------|
[ Guitar 2
[----------------------------------------------------|
[-----------------------------------------14-14b\----|
[----------------------------------------------------|
[----------------------------------------------------|
[----------------------------------------------------|
[----------------------------------------------------|

 Guitar 1 
         ~~~~~      ~~~~~~~~~~~   ~~~~~~~~                            
[----------------------------------------------------|
[----------------------------------------------------|
[-----------------------------x-2-4-b-----2p0--------|
[-----------------------------x----------------------|
[-------5-(5)-------3--(3)--\------------------------|
[-0-(0)-------0-(0)---------\-----------------0------|
[ Guitar 2
[---------------------------------------------12-----|
[-------------------------------------------12---12--|
[----------------------------------------14b---------|
[----------------------------------------------------|
[----------------------------------------------------|
[----------------------------------------------------|


 Guitar solo

 Backing is main riff

   ~~~~~~~~~~~~~~~~~~           ~~~~~~~~                     ~~~~~         
E|------------------------------15fb------15p12-15p12----------------|
B|-15b---15fb---15fb--r15-12--------------------------15-12-15-15b---|
G|---------------------------12--------------------------------------|
D|-------------------------------------------------------------------|
A|-------------------------------------------------------------------|
E|-------------------------------------------------------------------|

E|-12--------------------------------------------------------|
B|----15-12----12-15p12----12-15p12----12-15p12----12-15p12--|
G|----------14b---------14b---------14b---------14b----------|
D|-----------------------------------------------------------|
A|-----------------------------------------------------------|
E|-----------------------------------------------------------|

     h      h                      ~~~~~~~~~~~   ~~~~~~~
E|-12-15p12-15p12-15fb-12----12-14b---14b-14b-------------|
B|------------------------15--------------------15-fb-----|
G|--------------------------------------------------------|
D|--------------------------------------------------------|
A|--------------------------------------------------------|
E|--------------------------------------------------------|

     h      ~~~~                                        ~~~~    ~~~~
E|-------------------------------------------------------------------|
B|-12-15p12----------------------------------------------------------|
G|-------------------------12-\---12----12-14-14br12-12------12------|
D|----------14-------12-14------/----14-----------------14------14---|
A|----------------14-------------------------------------------------|
E|-------------------------------------------------------------------|


E|-------------------------------------------------------------------|
B|---------------------------------------------17fb-\12--------------|
G|-1212-12-14p12----14p12----14p12----14p12-------------14-12----12\-|
D|---------------14-------14-------14-------14----------------14-----|
A|-------------------------------------------------------------------|
E|-------------------------------------------------------------------|

                                 h        h                    ~~~~~~~~~~~~                        
E|----------------------------12-15p12----15p12----17p15-17p15-17fb--17fb---|
B|----------------------12-15----------15-------15--------------------------|
G|-------------------12-----------------------------------------------------|
D|-------12----12-14--------------------------------------------------------|
A|-12-14----14--------------------------------------------------------------|
E|--------------------------------------------------------------------------|

                      ~~~~~~~~~              ~~~~~               
E|-17-15-----------------------------------------------15fb-15fb-15fb--|
B|-------17-15-17-15-17b-17fb----17p15----15-17-----15-----------------|
G|-------------------------------------16------------------------------|
D|---------------------------------------------------------------------|
A|---------------------------------------------------------------------|
E|---------------------------------------------------------------------|

      h    h     h     h     h
E|----------------------------------------15p12----15p12-17fb--17fb---|
B|-12-15p12-15p12-15p12-15p12-15p12-18fb--------15--------------------|
G|--------------------------------------------------------------------|
D|--------------------------------------------------------------------|
A|--------------------------------------------------------------------|
E|--------------------------------------------------------------------|

              ~~~~~~
E|-15----------------------------------------------------------------|
B|----17-15b--15b-----\----------------------------------------------|
G|--------------------------------12----12-14b-r12-------------------|
D|-----------------------14-14-14----14------------14p13p12----12-\--|
A|----------------------------------------------------------14-------|
E|-------------------------------------------------------------------|

          ~~~~~~~~                       ~~~~
E|------------------------------------------------12----------------------|
B|-----------------------------------------------12--12-15p14p12-15p14p12-|
G|------------------------------------12------/14b------------------------|
D|----12-14fb-14fb--12----------12-14----14-------------------------------|
A|-14------------------14-12-14-------------------------------------------|
E|------------------------------------------------------------------------|

                     h           h           h           h     ~~~~~~~
E|-15p12-------------------------------------------------------15fb----|
B|-------15p12----12-15p12----12-15p12----12-15p12----12-15p12---------|
G|-------------12----------12----------12----------12------------------|
D|---------------------------------------------------------------------|
A|---------------------------------------------------------------------|
E|---------------------------------------------------------------------|



E|-15-12----12-17fb-17fb-17fb-\--|
B|-------15----------------------|
G|-------------------------------|
D|-------------------------------|
A|-------------------------------|
E|-------------------------------|



 Outro fade out
                         ~~~
E|-------------------------------|
B|-----------------/13\----------|
G|-----------7-9-\---------------|
D|-----5-7/9---------------------|
A|-5-7---------------------------|
E|----------------------0-5----0-|
Outros vídeos desta música
    75 exibições
      • ½ Tom
      • Am
      • Bbm
      • Bm
      • Cm
      • C#m
      • Dm
      • Ebm
      • Em
      • Fm
      • F#m
      • Gm
      • G#m
    • Adicionar à lista

    Afinação da cifra

    Afinador online

      0 comentários

      Ver todos os comentários

      Entre para o Cifra Club PRO

      Tenha acesso a benefícios exclusivos no App e no Site

      • Chega de anúncios

      • Badges exclusivas

      • Mais recursos no app do Afinador

      • Atendimento Prioritário

      • Aumente seu limite de lista

      • Ajude a produzir mais conteúdo

      Cifra Club Pro

      Aproveite o Cifra Club com benefícios exclusivos e sem anúncios
      Cifra Club Pro
      Aproveite o Cifra Club com benefícios exclusivos e sem anúncios
      Ops (: Contenido disponible sólo en portugués.
      OK