Cifra Club

Lazy Lady

Pentagram (USA)

Cifra: Principal (violão e guitarra)
Selo Cifra Club: esta cifra foi revisada para atender aos critérios oficiais da nossa Equipe de Qualidade.
tom: F#
E|---------------------------------------------------------------------------|
B|---------------------------------------------------------------------------|
G|---------------------------------------------------------------------------|
D|------5/7--------3/5-----------8/10----------3/5----------1/3----------3/5-|
F#|-0 ---------0 -----------0-------------0-------------0------------0--------|
C#|---------------------------------------------------------------------------|

E|---------------------------------------------------------------------------|
B|---------------------------------------------------------------------------|
G|---------------------------------------------------------------------------|
D|-7-7-7-7-7-----------------------------------------------------------------|
A|-0-0-0-0-0------7\0--------------------------------------------------------|
E|---------------------------------------------------------------------------|


[Verse 1:repeat 6 times]

E|---------------------------------------------------------------------------|
B|---------------------------------------------------------------------------|
G|---------------5-----------------------------------------------------------|
D|--7-----5------5-----5-------3-------5------7-7-7-7-7----------------------|
A|--7-----5------3-----5-------3-------5------7-7-7-7-7----------------------|
E|--5-----3------------3-------1-------3-----| 5-5-5-5-5----------------------|

E|---------------------------------------------------------------------------|
B|---------------------------------------------------------------------------|
G|---------------------------------------------------------------------------|
D|---------------------------------------------------------------------------|
A|---------------------------------------------------------------------------|
E|---------------------------------------------------------------------------|


[Chorus]

E|---------------------------------------------------------------------------|
B|---------------------------------------------------------------------------|
G|---------------------------------------------------------------------------|
D|---------------------------------------------------------------------------|
A|--------7---------5--------------------------------------------------------|
E|-0--0--------5-7------7\5----3-5-3~----------------------------------------|

E|---------------------------------------------------------------------------|
B|---------------------------------------------------------------------------|
G|---------------------------------------------------------------------------|
D|---------------------------------------------------------------------------|
A|--------7---------------5-7------------------------------------------------|
E|-0--0---------3-5-7--------------------------------------------------------|





************************************

| /  Slide up
| \  Slide down
| ~  Vibrato
Outros vídeos desta música
    17 exibições
      • ½ Tom
      • A
      • Bb
      • B
      • C
      • Db
      • D
      • Eb
      • E
      • F
      • F#
      • G
      • Ab
    • Adicionar à lista

    Afinação da cifra

    Afinador online

      0 comentários

      Ver todos os comentários

      Entre para o Cifra Club PRO

      Tenha acesso a benefícios exclusivos no App e no Site

      • Chega de anúncios

      • Badges exclusivas

      • Mais recursos no app do Afinador

      • Atendimento Prioritário

      • Aumente seu limite de lista

      • Ajude a produzir mais conteúdo

      Cifra Club Pro

      Aproveite o Cifra Club com benefícios exclusivos e sem anúncios
      Cifra Club Pro
      Aproveite o Cifra Club com benefícios exclusivos e sem anúncios
      Ops (: Contenido disponible sólo en portugués.
      OK