Cifra Club

Relentless

Pentagram (USA)

Cifra: Principal (violão e guitarra)
Selo Cifra Club: esta cifra foi revisada para atender aos critérios oficiais da nossa Equipe de Qualidade.
tom: Bm
Intro
E|---------------------------------------------------------------------| I
B|---------------------------------------------------------------------| I
G|---------------------------------------------------------------------| I
D|--------------------------------------------7---5--------------------| I
A|---7p5-----7p5---7---7-7-5-7p5----7p5---7---7---5--------------------| I
E|-------0-0---------------------0-0----------5---3--------------------| I
 pm.    . .                     . .
Verse
E|---------------------------------------------------------------------| I
B|---------------------------------------------------------------------| I
G|---------------------------------------------------------------------| I
D|----------5\4-------5\4--7-----------5-7-----------------------------| I
A|----------5\4-------5\4--7-----------5-7-----------------------------| I
E|--0-0-0-0-3\2--0-0--3\2--5--0-0-0-0--3-5-----------------------------| I
pm . . . .      . .          . . . .
Outros vídeos desta música
    36 exibições
      • ½ Tom
      • Am
      • Bbm
      • Bm
      • Cm
      • C#m
      • Dm
      • Ebm
      • Em
      • Fm
      • F#m
      • Gm
      • G#m
    • Adicionar à lista

    Afinação da cifra

    Afinador online

      0 comentários

      Ver todos os comentários

      Entre para o Cifra Club PRO

      Tenha acesso a benefícios exclusivos no App e no Site

      • Chega de anúncios

      • Badges exclusivas

      • Mais recursos no app do Afinador

      • Atendimento Prioritário

      • Aumente seu limite de lista

      • Ajude a produzir mais conteúdo

      Cifra Club Pro

      Aproveite o Cifra Club com benefícios exclusivos e sem anúncios
      Cifra Club Pro
      Aproveite o Cifra Club com benefícios exclusivos e sem anúncios
      Ops (: Contenido disponible sólo en portugués.
      OK