Cifra Club

Miedo

Pepe Aguilar

Cifra: Versão 4 (violão e guitarra)
Selo Cifra Club: esta cifra foi revisada para atender aos critérios oficiais da nossa Equipe de Qualidade.
tom: G
más completa se escucha muy bien; agregado el arpegio de los estribillos, así como
también el INTRO esta mejor que el pasado. Si tienen alguna duda escriban.
TE AMO MADC  MYRIAM

Durante este arreglo se tocan los siguientes acordes repetidamente:

INTRO:              2ª Guitarra        G - Bm - Em - C

1ª Guitarra eléctrica con efecto de DEA Y con 32 m Sec

E|------------------------------------------------------------------------------------|
B|------------------------------------------------------------------------------------|
G|------------------------------------------------------------------------------------|
D|------------------------------------------------------------------------------------|
A|----------------3---1---------------------------3---1------------------------3---1--(x| 14)
E|---3---1---0------------0---1-----3---1---0------------0---1----3---1---0-----------|

0:25

E|-----------------------------------------------------------------------------------|
B|-----------------------------------------------------------------------------------|
G|-----------------------------------------------------------------------------------|
D|-----------------------------------------------------------------------------------|
A|---1-------------------------------------------------------------------------------|
E|------0---1---3---1---0----3/5---6/8---8--8--6--5--6----3/5---5--5--3--2----3------|

Esto es lo que se toca durante primer estribillo y se repite en el segundo de igual manera...

0:40

     G            Bm             Em            C           C            D

E|-----------3------------2-------------0--------------0--------0-----------2-------|
B|-----------3------------3-------------0--------------1-----------1----------3-----|
G|------0-------------4--------------0-------------0----------0--0--------2---------|
D|----------------------------------------------------------------------0-----------|
A|---2------------2--------------2-------------3-----------3------------------------|
E|---3------------2--------------0-------------3-----------3------------------------|

    Bm           C           D

E|--------2------------0----------2------------------------------------------------|
B|--------3------------1-------------3---------------------------------------------|
G|------------------0----------2---------------------------------------------------|
D|-----4---------------------0-----------------------------------------------------|
A|--2------------3-----------------------------------------------------------------|
E|--2------------3-----------------------------------------------------------------|


     G            Bm             Em            Bm          C            D

E|-----------3------------2-------------0--------------2--------0-----------2------|
B|-----------3------------3-------------0--------------3-----------1----------3----|
G|------0-------------4--------------0-------------4----------0--0--------2--------|
D|----------------------------------------------------------------------0----------|
A|---2------------2--------------2-------------2-----------3-----------------------|
E|---3------------2--------------0-------------2-----------3-----------------------|

G             Bm         Em
Hace tanto tiempo sin saber de ti
      C         C            D        Em
Por fin me encuentro, frente a frente
E|---------------------------------------------------|
B|---------------------------------------------------|
G|----5--3---0---3---5r------------------------------|

             Bm      C          D
la extraña sensación, buscar adentro

E|---------------------------------------------------|
B|---------------------------------------------------|
G|---0---1---3---------------------------------------|

G        Bm            Em   Bm             C
en libertad sentirme preso, frente al espejo
             D
lloran mis miedos

             C                   D
Miedo de sentirme solo, teniéndote
               Bm         Bm7           Em
miedo a no sentir tus manos, sobre mi piel
              C                           D
miedo a no saber que piensas, si te hago falta
             Bm       Bm7            Em
ganas de tirar mi ego, por la ventana
          C                D
y me pregunto ¿que hago aquí?
     G
sin ti

E|-----------------------------------------------------------------------------------------|
B|----------3---1--------------------------------------------------------------------------|
G|-3--1--0---------0---1---3---1---0----3/5---6/8---8--8--6--5--6----3/5---5--5--3--2----3-|
G           Bm              Em
Esto de mostrarme frente al mundo
           C                 D   Em
a cara limpia, no se si es justo
          Bm       C               D
se dice que el amor, puede ser ciego
G       Bm              Em Bm              C
en libertad sentirme preso, frente al espejo
               D
lloran mis miedos


             C                   D
Miedo de sentirme solo, teniéndote
               Bm         Bm7           Em
miedo a no sentir tus manos, sobre mi piel
              C                           D
miedo a no saber que piensas, si te hago falta
             Bm       Bm7            Em
ganas de tirar mi ego, por la ventana
          C                D
y me pregunto ¿que hago aquí?
     Em
sin ti


C        D     Bm      Em
Y tu mi amigo ¿Qué pensaras?
C         D
Si estas igual


Em      Dm   Em C
Que yo
Em          Dm
Tienes miedo
Em           C
Siempre miedo
Em         Dm                Em
Siempre miedo ..siempre miedo
C              Em
Tanto miedo



E|----------------------------------------------------------------------------------|
B|----------------------------------------------------------------------------------|
G|----------------------------------------------------------------------------------|
D|----------------------------------------------------------------------------------|
A|---------------3---1----------------------------3---1----------------------3---1--(x| 5)
E|---3---1---0-----------0---1-----3---1---0------------0---1----3---1---0----------|
Outros vídeos desta música
    9 exibições
      • ½ Tom
      • A
      • Bb
      • B
      • C
      • Db
      • D
      • Eb
      • E
      • F
      • F#
      • G
      • Ab
    • Adicionar à lista

    Afinação da cifra

    Afinador online

      0 comentários

      Ver todos os comentários

      Conseguiu tocar?

      0Tocaram0Ainda não

      Grave um vídeo tocando Miedo e nos envie!

      Toque também

      1. Imagem do artista Joan SebastianEso Y Mas Joan Sebastian
      2. Imagem do artista José JoséEl Triste José José
      3. Imagem do artista Vicente FernándezEl Rey Vicente Fernández
      4. Imagem do artista Alejandro FernándezHoy Tengo Ganas de Ti (feat. Christina Aguilera) Alejandro Fernández

      Entre para o Cifra Club PRO

      Tenha acesso a benefícios exclusivos no App e no Site

      • Chega de anúncios

      • Badges exclusivas

      • Mais recursos no app do Afinador

      • Atendimento Prioritário

      • Aumente seu limite de lista

      • Ajude a produzir mais conteúdo

      Cifra Club Pro

      Aproveite o Cifra Club com benefícios exclusivos e sem anúncios
      Cifra Club Pro
      Aproveite o Cifra Club com benefícios exclusivos e sem anúncios
      OK