Enviar cifraEntrar

Amei

Péricles

Cifra: Principal
exibições 31.720
Tom: A

 Intro:   F#m7/11          F7M(11+)       Dm6        A9    A7M        Dm6/A   E7/9
E|-10-------------------------------9-----------------------------------------------9-12-10-9-----------------------]
B|---------10------10-12-10---10-12-----10-12-10---10-12-13-12-10---------9-9-10-12--------------]
G|----9-11----11-9----------9---------9----------9----------------9-11-11---------------------10-9------------]
D|-------------------------------------------------------------------------------------------------------------------------]
A|-------------------------------------------------------------------------------------------------------------------------]
E|-------------------------------------------------------------------------------------------------------------------------]


A9 A7M   Dm7(9) F7M(9)/G   C6(9)        C#m7 E/F#
Amei     Como quem pensou...OU, OU
B7M  Bm6      Am7/9   D/E  D/E D/E
Em eternizar,  nossa paixão para sempre


A9  A7M  Dm7(9)  F/G       C6(9)          C#m7  E/F#
Sonhei        Me deixei levar... Ah, ah...
      B7M/Eb Bm6       Am  Am7+/G#  G/D A9/C#
Pela ilusão...   Meu Coração       Tá doente


D7M D7M(6)      C#m7  C#m7+ C#m7 C7M/E         C9     D/E  E  D/E  E
Nada....   pode apagar.......... O teu nome está em mim


Bm7  C#m7  D7M D7M(6)   C#m7    C#m7+ C#m7 C9    C7M       C6   D/E D/E E E  D/E D/E  E E
A    lembrança do teu beijo faz          Meu sofrer bem mais ruim


A9         B/A       Dm6         A9     D6/E
Teu calor, me faltou,   Me doeu, Magoou
A9       B/A       Dm6/A E7/9-     A9
Me perdi Nessa dor cego   de     amor

        B/A          Dm6/A   A9
E|-9-8----------------------------9-7-9-7-5-------------]
B|---- 10-9-7-------7---7-10-7-10-----------6-------]
G|------------8-6-8---8----------------------7-9--------]
D|-----------------------------------------------------------]
A|-----------------------------------------------------------]
E|-----------------------------------------------------------]

A7M Dm7(9) F/G F#/G# F/G         C7M           C#m7 E/F#
Sonhei                   Me deixei levar... Ah, ah...
 B7M Bm6     Am Am7+/G#  G/D A9/C#
Pela ilusão... Meu Coração     Tá doente


D7M D7M(6)     C#m7  C#m7+ C#m7 C7M           C9    D/E  E  D/E  E
Nada....   pode apagar.......... O teu nome está em mim


Bm7 C#m7 D7M D7M(6)   C#m7    C5+ C#m7 C7M  C7M(6)           D/E D/E E E  D/E D/E  E E
A  lembrança do teu beijo faz        Meu sofrer bem mais ruim


A9              B/A   Dm6        A9     D6(9)/E
Teu calor, me faltou,   Me doeu, Magoou
A9      B/A       Dm6/A E7/9-     A9   D6(9)/E
Me perdi Nessa dor cego de     amor


A9              B/A   Dm6        A9     D6(9)/E
Teu calor, me faltou,   Me doeu, Magoou
A9      B/A       Dm6/A E7/9-     A9
Me perdi Nessa dor cego de     amor

 B/A      Dm6/A   A7M(9)
E|-9-8----------------------------9-7-9-7-5----------]
B|---- 10-9-7-------7---7-10-7-10-----------6-----]
G|------------8-6-8---8----------------------7-9------]
D|---------------------------------------------------------]
A|---------------------------------------------------------]
E|---------------------------------------------------------]
  • 1
  • 2
  • 3
  • 4
  • 5
  • 6
  • 7
  • 8
  • 9
  • 10
  • 11
  • 12
    Acordes para:
      Composição: Luiz Cláudio Picolé / Carica / PrateadoColaboração e revisão:
      • popobass

      0 comentários

        mostrar mais comentários

        Conseguiu tocar?

        0tocaram0ainda não

        Grave um vídeo tocando Amei e mande pra gente!

        00:00 / 00:00
        outros vídeos desta música
        repetirqualidadeautomática
        • automática
        Outro vídeos desta música
          00:00 / 00:00
          automática
          • automática
          Acordes para:violão e guitarra
          dificuldadeexibiçõescontribuições
          fecharplay/pause subir/descer velocidade
            acordes
            fechar
            OK
            Feedback