Cifra Club

Melhor Eu Ir

Péricles

Cifra: Principal (violão e guitarra)
Selo Cifra Club: esta cifra foi revisada para atender aos critérios oficiais da nossa Equipe de Qualidade.
tom: A
[Intro] E  E6  E7M  E6  E
        E  E6  E7M  E6  E
        C  C6  C7M  C6  C
        C  C6  C7M(11+)

Parte 1 De 2
   E     E6   E7M   E6     E
E|-----------------------------------------------------|
B|-------------4-------------0-------------------------|
G|-------6-----------6-----4---------------------------|
D|-4h6-6---6-6---6-6---6-6-----------------------------|
A|-----------------------------------------------------|
E|-0-----0-----0-----0-----0---------------------------|

Parte 2 De 2
   C     C6    C7M   C6   C    C7M(11+)
E|-0-------------------------2-2---0-2---0-2-----------|
B|-------------0---------------0-----0-----0-----------|
G|-------2-----------2-----0---0-0---0-0---0-----------|
D|---2-2---2-2---2-2---2-2-----------------------------|
A|-3-----3-----3-----3-----3---3-----3-----3-----------|
E|-----------------------------------------------------|

[Primeira Parte]

[Parte 1 De 3]

   E7M(9) A7M G#m7  A7M E7M(9) A7M D7(13)
E|--------4---2-----4----------4---7-6-5-4--|
B|-7------5---4-----5---7------5---7--------|
G|-8------6---4-----6---8------6---5--------|
D|-6--------------------6----------0--------|
A|------------------------------------------|
E|-0------5---4-----5---0------5------------|

[Parte 2 De 3]

   E7M(9) A7M G#m7  A7M  
E|--------4---2-----4-----------------------|
B|-7------5---4-----5-----------------------|
G|-8------6---4-----6-----------------------|
D|-6----------------------------------------|
A|------------------------------------------|
E|-0------5---4-----5-----------------------|

[Parte 3 De 3]

   C#m7(4)  B/D#  E6     E/A
E|------------------------------------------|
B|-5-5-5---4-4-4--5-5-5--0-0-0--0-----------|
G|-4-4-4---4-4-4--6-6-6--1-1-1--1-----------|
D|-4-4-4---4-4-4--6-6-6--2-2-2--2-----------|
A|-4---4---6---6--7---7--0---0--0-----------|
E|------------------------------------------|

          E7M(9)
Melhor eu ir
                         A7M  G#m7  A7M
Tudo bem vai ser melhor só
                   E7M(9)
Se teve que ser assim

É que pensando bem
               A7M(9)  D7(13)
Nunca existiu nós

                     E7M(9)
Só eu que pensei na gente

Ainda que demorei
              A7M  G#m7  A7M
Pra terminar,dói
              C#m7(11)        B/D#
Não era só comigo que você ficava
 E6                   E/A      
Foi tão difícil ter que enxergar

[Segunda Parte]

Parte 1 De 5
   G#m7               F#m7(11)
E|------------------------0-----------------|
B|-4-4-4-4-4-4-----4--0---0-0-0-0-0-----0---|
G|-4-4-4-4-4-4-----4--2---2-2-2-2-2-----2---|
D|-4-4-4-4-4---4------2-----2-2-2---2---2---|
A|------------------------------------------|
E|-4---4---4-----4------2---2---2-----2-----|

Parte 2 De 5
   G#m7                 Am6 Am6/B Am6/C A7M
E|------------------------------------------|
B|-4---4-4-4-4-4-----4--5-5-5-5--5-5----5---|
G|-4---4-4-4-4-4-----4--5-5-5-5--5-4----6---|
D|-4---4-4-4-4---4------4-4-4-4--4-4----6---|
A|----------------------0---2----3------0---|
E|---4---4---4-----4------------------------|

Parte 3 De 5
   E     E6    E7M    E6     F#m7(11)
E|----------------------------0--------------|
B|-0-0---2-2---4-4-----2--0---0-0-0-0-0-----0|
G|-1-1---1-1---1-1-----1--2---2-2-2-2-2-----2|
D|-2---2-----2-----2------2-----2-2-2---2----|
A|-------------------------------------------|
E|-0-----0-----0-----0------2---2---2-----2--|

Parte 4 De 5
   G#m7                 D7          Db7 C7 B7
E|--------------------------5----------------|
B|-4---4-4-4-4-4-----4--7---7-7-7-7-6---5--4-|
G|-4---4-4-4-4-4-----4--5---5-5-5-5-4---3--2-|
D|-4---4-4-4-4---4------7-----7-7-7-6---5--4-|
A|------------------------5---5---5--------2-|
E|---4---4---4-----4-------------------------|

Parte 5 De 5
   E
E|---0---------------------------------------|
B|-0-0-0-0-----------------------------------|
G|-1-1-1-1-----------------------------------|
D|-2---2-2-----------------------------------|
A|-------------------------------------------|
E|-0---0-------------------------------------|

G#m7                      F#m7(11)
    Que tudo isso foi ilusão
                             G#m7
Todo esse tempo eu perdi em vão
     Am6   Am6/B  Am6/C  A7M  E  E6
É difícil ter que a_____cei__tar
         E7M          E6    F#m7(11)
Meu coração, ele não deixa não
                               G#m7
Se faz de bobo, não tem jeito não
      D7           Db7  C7  B7 E
Só a vida pode ex_________plicar

[Pré-Refrão]

Parte 1 De 2
   E7M(2)     Am6/E
E|------------------------------------------|
B|-4-4-----4--5---5-5-5-5-5-----5-----------|
G|-4-4-----4--5---5-5-5-5-5-----5-----------|
D|-4---4------4---4-4-4-4---4---------------|
A|------------------------------------------|
E|-0-----0------0---0---0-----0-------------|

Parte 2 De 2
   E7M(2)               Am6/E
E|-----4-------------------------------------|
B|-4---4-4-4-4-4-----4--5---5-5-5-5-5-----5--|
G|-4---4-4-4-4-4-----4--5---5-5-5-5-5-----5--|
D|-4-----4-4-4---4------4---4-4-4-4---4------|
A|-------------------------------------------|
E|---0---0---0-----0------0---0---0-----0----|

              E7M(2)                
Que talvez a gente se encontrou
           Am6/E
Na hora errada

Eu pensando em amor
                       E7M(2)
Você pensando em madrugada

E agora a gente não consegue
       Am6/E            E7M(2)
Dizer nada, vim dizer adeus
                                 Am6/E
Talvez a gente se perdeu pelo caminho

Mesmo do seu lado
                   E7M(2)
Eu me sinto tão sozinho

E agora a gente não consegue
       Am6/E   
Dizer nada

Além do que adeus

[Refrão]

Parte 1 De 3
   E7M(9)                   
E|-------------------------------------------|
B|-7---7---7-7---7-7-----7-------------------|
G|-8---8---8-8---8-8-----8-------------------|
D|-6-----6-----6-----6-----------------------|
A|-------------------------------------------|
E|---0-----7-----0-----7---------------------|

Parte 2 De 3
   Am6
E|-------------------------------------------|
B|-5---5---5-5---5-5-----5-------------------|
G|-5---5---5-5---5-5-----5-------------------|
D|-4-----4-----4-4---4-----------------------|
A|---0-----------0---------------------------|
E|---------0-----------0---------------------|

Parte 3 De 3
   Am6
E|------------------------------------------|
B|-5----------------------------------------|
G|-5----------------------------------------|
D|-4----------------------------------------|
A|-0----------------------------------------|
E|------------------------------------------|

E7M(9)                Am6
      Melhor eu ir tchau!
            E7M(9)
Melhor o final
                 Am6
Melhor assim, assim
            E7M(9)
Melhor pra mim, e pra você também

                Am6
Melhor eu ir tchau!
            E7M(9)
Melhor o final
                 Am6
Melhor assim, assim

Melhor pra mim

( E  E6  E7M  E6  E )
( C  C6  C7M  C6 )

Parte 1 De 2
   E     E6   E7M   E6     E
E|-----------------------------------------------------|
B|-------------4-------------0-------------------------|
G|-------6-----------6-----4---------------------------|
D|-4h6-6---6-6---6-6---6-6-----------------------------|
A|-----------------------------------------------------|
E|-0-----0-----0-----0-----0---------------------------|

Parte 2 De 2
   C     C6    C7M   C6   
E|-0---------------------------------------------------|
B|-------------0---------------------------------------|
G|-------2-----------2---------------------------------|
D|---2-2---2-2---2-2-----------------------------------|
A|-3-----3-----3-----3---------------------------------|
E|-----------------------------------------------------|

[Primeira Parte]

   C#m7(4)  B/D#       E6         E/A
E|------------------------------------------|
B|-5-5-5-5--4-4-----4--5---5-5-5--0-0-----0-|
G|-4-4-4-4--4-4-----4--6---6-6-6--1-1-----1-|
D|-4-4-4-4--4---4------6-----6-6--2---2-----|
A|-4---4----6-----6------7---7----0-----0---|
E|------------------------------------------|

              C#m7(11)        B/D#
Não era só comigo que você ficava
 E6                   E/A      
Foi tão difícil ter que enxergar

[Segunda Parte]

                      F#m7(11)
Que tudo isso foi ilusão
                             G#m7
Todo esse tempo eu perdi em vão
     Am6   Am6/B  Am6/C  A7M  E  E6
É difícil ter que a_____cei__tar
         E7M          E6    F#m7(11)
Meu coração, ele não deixa não
                               G#m7
Se faz de bobo, não tem jeito não
      D7       D7  Db7  C7  B7  E
Só a vida pode ex_________plicar

[Pré-Refrão]

   E7M(2)        Am6/E
E|------------------------------------------|
B|-4-4--4-4-4-4--5-5--5-5-5-5---------------|
G|-4-4--4-4-4-4--5-5--5-5-5-5---------------|
D|-4-4--4-4-4-4--4-4--4-4-4-4---------------|
A|------------------------------------------|
E|-0----0---0----0----0---0-----------------|

              E7M(2)                
Que talvez a gente se encontrou
           Am6/E
Na hora errada

Eu pensando em amor
                       E7M(2)
Você pensando em madrugada

E agora a gente não consegue
       Am6/E            E7M(2)
Dizer nada, vim dizer adeus
                                 Am6/E
Talvez a gente se perdeu pelo caminho

Mesmo do seu lado
                   E7M(2)
Eu me sinto tão sozinho

E agora a gente não consegue
       Am6/E
Dizer nada

Além do que adeus

[Refrão]

E7M(9)                Am6
      Melhor eu ir tchau!

            E7M(9)
Melhor o final
                 Am6
Melhor assim, assim
            E7M(9)
Melhor pra mim, e pra você também

                Am6
Melhor eu ir tchau!
            E7M(9)
Melhor o final
                 Am6
Melhor assim, assim

Melhor pra mim

[Final] C  C6  C7M  C6
00:00 / 00:00
Outros vídeos desta música
Repetir
Outros vídeos desta música
967.258 exibições
  • Simplificar cifra
    • ½ Tom
    • A
    • Bb
    • B
    • C
    • Db
    • D
    • Eb
    • E
    • F
    • F#
    • G
    • Ab
  • Adicionar à lista

Afinação da cifra

Afinador online

    0 comentários

    Ver todos os comentários

    Entre para o Cifra Club PRO

    Tenha acesso a benefícios exclusivos no App e no Site

    • Chega de anúncios

    • Mais recursos no app do Afinador

    • Atendimento Prioritário

    • Aumente seu limite de lista

    • Ajude a produzir mais conteúdo

    00:00 / 00:00
    Capítulos
    • Apresentação
    • Tocando a Música
    • Dicas Iniciais
    • Tocando Introdução
    • Ensinando Introdução
    • Acordes da Primeira Parte
    • Tocando Primeira Parte
    • Ensinando Primeira Parte
    • Acordes da Segunda Parte
    • Tocando Segunda Parte
    • Ensinando Segunda Parte
    • Acordes do Pré-Refrão e Refrão
    • Tocando Pré-Refrão
    • Ensinando Pré-Refrão
    • Ensinando Refrão
    • Dicas Repetições
    • Tocando Primeira Parte - Repetição
    • Ensinando Primeira Parte - Repetição
    • Tocando Pré-Refrão 2
    • Ensinando Pré-Refrão 2
    • Encerramento

    Cifra Club Pro

    Aproveite o Cifra Club com benefícios exclusivos e sem anúncios
    Cifra Club Pro
    Aproveite o Cifra Club com benefícios exclusivos e sem anúncios
    OK