Cifra Club

Aprenda

Don't Look Back

Peter Tosh

Tab de baixo: Principal
Intro:

G|---------------------------------|---------------------------------|
D|-2---2---2---3-------2-----------|-2---2---2---3---2-------0-------|
A|---------------------------------|---------------------------------|
E|---------------------------------|---------------------------------|

G|-------------0---0---------------|-0-----------0---0---------------|
D|---------0-2-------------2-0-2---|---------0-2-------------2-0-2---|
A|---------------------------------|---------------------------------|
E|---------------------------------|---------------------------------|

G|---------------------------------|
D|---------------------------------|
A|---------------------2---0---2---|
E|-3---------------3---------------|

G|---------------------------------|---------------------------------|
D|-2---2---2---3-------2-----------|-2---2---2---3---2-------0-------|
A|---------------------------------|---------------------------------|
E|---------------------------------|---------------------------------|

Verso:

G|---------------------------------|---------0-----0---------0-------|
D|---------0-----0---------0-------|-----------------------------0---| 4x
A|---------------------------------|-3---3-----------3---3-----------|
E|-3---3-----------3-3-3-3---------|---------------------------------|

Refrão:

G|---------------------------------|---------------------------------|
D|---------0-----0---------0-------|---------------------------------|
A|---------------------------------|-0-0-0-0---------0-0-0-0---2-----|
E|-3---3-----------3-3-3-3---------|---------------------------------|

G|-----------------------------0---|---------------------------------|
D|-------------------------2-------|-0-0-0-0---------0-0-0-0---------|
A|-3-3-3-3---------3-3-3-3---------|---------------------------------|
E|---------------------------------|---------------------------------|

G|-------------0---0---------------|-0-----------0---0---------------|
D|---------0-2-------------2-0-2---|---------0-2-------------2-0-2---| 2x
A|---------------------------------|---------------------------------|
E|-3-------------------------------|---------------------------------|
Composição de Karl Pitterson
Colaboração e revisão:
  • Everton Damascena
318 exibições

0 comentários

Ver todos os comentários

Conseguiu tocar?

0 Tocaram 0 Ainda não

Grave um vídeo tocando Don't Look Back e nos envie!

00:00 / 00:00
Outros vídeos desta música
Repetir Qualidade Automático
Outros vídeos desta música
00:00 / 00:00
Automático

Cifra Club Pro

Aproveite o Cifra Club com benefícios exclusivos e sem anúncios
Cifra Club Pro
Aproveite o Cifra Club com benefícios exclusivos e sem anúncios
OK